0
SECTION
2
HEADER
9
$INSUNITS
70
4
9
$ACADVER
1
AC1014
9
$HANDSEED
5
FFFF
0
ENDSEC
0
SECTION
2
TABLES
0
TABLE
2
VPORT
5
8
100
AcDbSymbolTable
0
ENDTAB
0
TABLE
2
LTYPE
5
5
100
AcDbSymbolTable
0
LTYPE
5
14
100
AcDbSymbolTableRecord
100
AcDbLinetypeTableRecord
2
BYBLOCK
70
0
0
LTYPE
5
15
100
AcDbSymbolTableRecord
100
AcDbLinetypeTableRecord
2
BYLAYER
70
0
0
ENDTAB
0
TABLE
2
LAYER
5
2
100
AcDbSymbolTable
70
2
0
LAYER
5
50
100
AcDbSymbolTableRecord
100
AcDbLayerTableRecord
2
0
70
0
6
CONTINUOUS
0
ENDTAB
0
TABLE
2
STYLE
5
3
100
AcDbSymbolTable
70
1
0
STYLE
5
11
100
AcDbSymbolTableRecord
100
AcDbTextStyleTableRecord
2
STANDARD
70
0
0
ENDTAB
0
TABLE
2
VIEW
5
6
100
AcDbSymbolTable
70
0
0
ENDTAB
0
TABLE
2
UCS
5
7
100
AcDbSymbolTable
70
0
0
ENDTAB
0
TABLE
2
APPID
5
9
100
AcDbSymbolTable
70
2
0
APPID
5
12
100
AcDbSymbolTableRecord
100
AcDbRegAppTableRecord
2
ACAD
70
0
0
ENDTAB
0
TABLE
2
DIMSTYLE
5
A
100
AcDbSymbolTable
70
1
0
ENDTAB
0
TABLE
2
BLOCK_RECORD
5
1
100
AcDbSymbolTable
70
1
0
BLOCK_RECORD
5
1F
100
AcDbSymbolTableRecord
100
AcDbBlockTableRecord
2
*MODEL_SPACE
0
BLOCK_RECORD
5
1B
100
AcDbSymbolTableRecord
100
AcDbBlockTableRecord
2
*PAPER_SPACE
0
ENDTAB
0
ENDSEC
0
SECTION
2
BLOCKS
0
BLOCK
5
20
100
AcDbEntity
100
AcDbBlockBegin
2
*MODEL_SPACE
0
ENDBLK
5
21
100
AcDbEntity
100
AcDbBlockEnd
0
BLOCK
5
1C
100
AcDbEntity
100
AcDbBlockBegin
2
*PAPER_SPACE
0
ENDBLK
5
1D
100
AcDbEntity
100
AcDbBlockEnd
0
ENDSEC
0
SECTION
2
ENTITIES
0
LWPOLYLINE
5
100
100
AcDbEntity
8
0
100
AcDbPolyline
90
4
70
1
43
0.0
10
-198.58750000000001
20
37.499999999999986
10
-202.93750000000003
20
37.499999999999986
10
-202.93750000000003
20
24.999999999999982
10
-198.58750000000001
20
24.999999999999982
0
LWPOLYLINE
5
101
100
AcDbEntity
8
0
100
AcDbPolyline
90
4
70
1
43
0.0
10
-198.58750000000001
20
-62.500000000000014
10
-202.93750000000003
20
-62.500000000000014
10
-202.93750000000003
20
-75.000000000000014
10
-198.58750000000001
20
-75.000000000000014
0
LWPOLYLINE
5
102
100
AcDbEntity
8
0
100
AcDbPolyline
90
4
70
1
43
0.0
10
-198.58750000000001
20
-37.500000000000007
10
-202.93750000000003
20
-37.500000000000007
10
-202.93750000000003
20
-50.000000000000014
10
-198.58750000000001
20
-50.000000000000014
0
LWPOLYLINE
5
103
100
AcDbEntity
8
0
100
AcDbPolyline
90
4
70
1
43
0.0
10
-198.58750000000001
20
62.499999999999986
10
-202.93750000000003
20
62.499999999999986
10
-202.93750000000003
20
49.999999999999986
10
-198.58750000000001
20
49.999999999999986
0
LWPOLYLINE
5
104
100
AcDbEntity
8
0
100
AcDbPolyline
90
4
70
1
43
0.0
10
-198.58750000000001
20
12.499999999999991
10
-202.93750000000003
20
12.499999999999991
10
-202.93750000000003
20
-8.8817841970012523e-15
10
-198.58750000000001
20
-8.8817841970012523e-15
0
LWPOLYLINE
5
105
100
AcDbEntity
8
0
100
AcDbPolyline
90
4
70
1
43
0.0
10
-198.58750000000001
20
-12.500000000000009
10
-202.93750000000003
20
-12.500000000000009
10
-202.93750000000003
20
-25.000000000000007
10
-198.58750000000001
20
-25.000000000000007
0
LWPOLYLINE
5
106
100
AcDbEntity
8
0
100
AcDbPolyline
90
4
70
1
43
0.0
10
-198.58750000000001
20
87.5
10
-202.93750000000003
20
87.5
10
-202.93750000000003
20
74.999999999999986
10
-198.58750000000001
20
74.999999999999986
0
LWPOLYLINE
5
107
100
AcDbEntity
8
0
100
AcDbPolyline
90
4
70
1
43
0.0
10
171.41249999999999
20
37.499999999999986
10
167.06249999999997
20
37.499999999999986
10
167.06249999999997
20
24.999999999999982
10
171.41249999999999
20
24.999999999999982
0
LWPOLYLINE
5
108
100
AcDbEntity
8
0
100
AcDbPolyline
90
4
70
1
43
0.0
10
171.41249999999999
20
-62.500000000000014
10
167.06249999999997
20
-62.500000000000014
10
167.06249999999997
20
-75.000000000000014
10
171.41249999999999
20
-75.000000000000014
0
LWPOLYLINE
5
109
100
AcDbEntity
8
0
100
AcDbPolyline
90
4
70
1
43
0.0
10
171.41249999999999
20
-37.500000000000007
10
167.06249999999997
20
-37.500000000000007
10
167.06249999999997
20
-50.000000000000014
10
171.41249999999999
20
-50.000000000000014
0
LWPOLYLINE
5
110
100
AcDbEntity
8
0
100
AcDbPolyline
90
4
70
1
43
0.0
10
171.41249999999999
20
62.499999999999986
10
167.06249999999997
20
62.499999999999986
10
167.06249999999997
20
49.999999999999986
10
171.41249999999999
20
49.999999999999986
0
LWPOLYLINE
5
111
100
AcDbEntity
8
0
100
AcDbPolyline
90
4
70
1
43
0.0
10
171.41249999999999
20
12.499999999999991
10
167.06249999999997
20
12.499999999999991
10
167.06249999999997
20
-8.8817841970012523e-15
10
171.41249999999999
20
-8.8817841970012523e-15
0
LWPOLYLINE
5
112
100
AcDbEntity
8
0
100
AcDbPolyline
90
4
70
1
43
0.0
10
171.41249999999999
20
-12.500000000000009
10
167.06249999999997
20
-12.500000000000009
10
167.06249999999997
20
-25.000000000000007
10
171.41249999999999
20
-25.000000000000007
0
LWPOLYLINE
5
113
100
AcDbEntity
8
0
100
AcDbPolyline
90
4
70
1
43
0.0
10
171.41249999999999
20
87.5
10
167.06249999999997
20
87.5
10
167.06249999999997
20
74.999999999999986
10
171.41249999999999
20
74.999999999999986
0
LINE
5
114
100
AcDbEntity
8
0
100
AcDbLine
10
176.99160000000001
20
-100
30
0
11
176.99160000000001
21
100
31
0
0
LINE
5
115
100
AcDbEntity
8
0
100
AcDbLine
10
-206.99160000000001
20
99.999999999999986
30
0
11
-206.99160000000001
21
-100.00000000000001
31
0
0
LINE
5
116
100
AcDbEntity
8
0
100
AcDbLine
10
-202.93750000000003
20
-87.5
30
0
11
-198.58750000000001
21
-87.5
31
0
0
LINE
5
117
100
AcDbEntity
8
0
100
AcDbLine
10
167.06249999999997
20
-87.5
30
0
11
171.41249999999999
21
-87.5
31
0
0
LWPOLYLINE
5
118
100
AcDbEntity
8
0
100
AcDbPolyline
90
4
70
1
43
0.0
10
105.76688983638391
20
74.999999999999986
10
75.766889836383911
20
74.999999999999986
10
75.766889836383911
20
66.999999999999972
10
105.76688983638391
20
66.999999999999972
0
LWPOLYLINE
5
119
100
AcDbEntity
8
0
100
AcDbPolyline
90
4
70
1
43
0.0
10
-105.76688983638391
20
66.999999999999972
10
-105.76688983638391
20
74.999999999999986
10
-135.76688983638391
20
74.999999999999986
10
-135.76688983638391
20
66.999999999999972
0
LWPOLYLINE
5
120
100
AcDbEntity
8
0
100
AcDbPolyline
90
4
70
1
43
0.0
10
75.766889836383911
20
-67.000000000000043
10
75.766889836383911
20
-75.000000000000057
10
105.76688983638391
20
-75.000000000000057
10
105.76688983638391
20
-67.000000000000043
0
LWPOLYLINE
5
121
100
AcDbEntity
8
0
100
AcDbPolyline
90
4
70
1
43
0.0
10
-105.76688983638391
20
-67.000000000000043
10
-135.76688983638391
20
-67.000000000000043
10
-135.76688983638394
20
-75.000000000000057
10
-105.76688983638391
20
-75.000000000000057
0
LWPOLYLINE
5
122
100
AcDbEntity
8
0
100
AcDbPolyline
90
4
70
1
43
0.0
10
146.08750000000001
20
-92.218023032562471
10
146.08750000000001
20
-62.218023032562471
10
141.73749999999998
20
-62.218023032562471
10
141.73749999999998
20
-92.218023032562471
0
LWPOLYLINE
5
123
100
AcDbEntity
8
0
100
AcDbPolyline
90
4
70
1
43
0.0
10
141.73749999999998
20
-17.218023032562471
10
146.08750000000001
20
-17.218023032562471
10
146.08750000000001
20
12.781976967437529
10
141.73749999999998
20
12.781976967437529
0
LWPOLYLINE
5
124
100
AcDbEntity
8
0
100
AcDbPolyline
90
4
70
1
43
0.0
10
141.73749999999998
20
57.781976967437529
10
146.08750000000001
20
57.781976967437529
10
146.08750000000001
20
87.781976967437529
10
141.73749999999998
20
87.781976967437529
0
LWPOLYLINE
5
125
100
AcDbEntity
8
0
100
AcDbPolyline
90
4
70
1
43
0.0
10
-177.61249999999995
20
62.781976967437529
10
-177.61249999999995
20
57.781976967437529
10
-173.26249999999999
20
57.781976967437529
10
-173.26249999999999
20
62.781976967437529
0
LWPOLYLINE
5
126
100
AcDbEntity
8
0
100
AcDbPolyline
90
4
70
1
43
0.0
10
-177.61249999999995
20
-17.218023032562471
10
-173.26249999999999
20
-17.218023032562471
10
-173.26249999999999
20
-12.218023032562471
10
-177.61249999999995
20
-12.218023032562471
0
LWPOLYLINE
5
127
100
AcDbEntity
8
0
100
AcDbPolyline
90
4
70
1
43
0.0
10
-177.61249999999995
20
-92.218023032562471
10
-173.26249999999999
20
-92.218023032562471
10
-173.26249999999999
20
-87.218023032562471
10
-177.61249999999995
20
-87.218023032562471
0
LINE
5
128
100
AcDbEntity
8
0
100
AcDbLine
10
176.99160000000001
20
270.14802979989213
30
0
11
176.99160000000001
21
330.14802979989207
31
0
0
LINE
5
129
100
AcDbEntity
8
0
100
AcDbLine
10
176.99160000000001
20
330.14802979989207
30
0
11
-14.997992970636638
21
370.07900876870332
31
0
0
LINE
5
130
100
AcDbEntity
8
0
100
AcDbLine
10
-14.997992970636638
20
370.07900876870332
30
0
11
-206.99160000000001
21
330.14802979989207
31
0
0
LINE
5
131
100
AcDbEntity
8
0
100
AcDbLine
10
-206.99160000000001
20
330.14802979989207
30
0
11
-206.99160000000001
21
270.14802979989213
31
0
0
LINE
5
132
100
AcDbEntity
8
0
100
AcDbLine
10
176.99160000000001
20
99.999999999999986
30
0
11
176.99160000000001
21
270.14802979989213
31
0
0
LINE
5
133
100
AcDbEntity
8
0
100
AcDbLine
10
-206.99160000000001
20
270.14802979989213
30
0
11
-206.99160000000001
21
100
31
0
0
LINE
5
134
100
AcDbEntity
8
0
100
AcDbLine
10
176.99160000000001
20
-263.09264101846082
30
0
11
176.99160000000001
21
-100
31
0
0
LINE
5
135
100
AcDbEntity
8
0
100
AcDbLine
10
171.41249999999999
20
-100
30
0
11
167.06249999999997
21
-100
31
0
0
LINE
5
136
100
AcDbEntity
8
0
100
AcDbLine
10
-206.99160000000001
20
-100
30
0
11
-206.99160000000001
21
-263.09264101846082
31
0
0
LINE
5
137
100
AcDbEntity
8
0
100
AcDbLine
10
-202.93750000000003
20
-263.09264101846082
30
0
11
-198.58750000000001
21
-263.09264101846082
31
0
0
LINE
5
138
100
AcDbEntity
8
0
100
AcDbLine
10
167.06249999999997
20
-263.09264101846082
30
0
11
171.41249999999999
21
-263.09264101846082
31
0
0
LINE
5
139
100
AcDbEntity
8
0
100
AcDbLine
10
167.06249999999997
20
-275.59264101846082
30
0
11
167.06249999999997
21
-263.09264101846082
31
0
0
LINE
5
140
100
AcDbEntity
8
0
100
AcDbLine
10
-198.58750000000001
20
-263.09264101846082
30
0
11
-198.58750000000001
21
-275.59264101846082
31
0
0
LINE
5
141
100
AcDbEntity
8
0
100
AcDbLine
10
-198.58750000000001
20
-275.59264101846082
30
0
11
-202.93750000000003
21
-275.59264101846082
31
0
0
LINE
5
142
100
AcDbEntity
8
0
100
AcDbLine
10
-202.93750000000003
20
-275.59264101846082
30
0
11
-202.93750000000003
21
-263.09264101846082
31
0
0
LINE
5
143
100
AcDbEntity
8
0
100
AcDbLine
10
-206.99160000000001
20
-263.09264101846082
30
0
11
-206.99160000000001
21
-463.09264101846077
31
0
0
LINE
5
144
100
AcDbEntity
8
0
100
AcDbLine
10
-206.99160000000001
20
-463.09264101846077
30
0
11
176.99160000000001
21
-463.09264101846077
31
0
0
LINE
5
145
100
AcDbEntity
8
0
100
AcDbLine
10
176.99160000000001
20
-463.09264101846077
30
0
11
176.99160000000001
21
-263.09264101846082
31
0
0
LINE
5
146
100
AcDbEntity
8
0
100
AcDbLine
10
171.41249999999999
20
-263.09264101846082
30
0
11
171.41249999999999
21
-275.59264101846082
31
0
0
LINE
5
147
100
AcDbEntity
8
0
100
AcDbLine
10
171.41249999999999
20
-275.59264101846082
30
0
11
167.06249999999997
21
-275.59264101846082
31
0
0
LWPOLYLINE
5
148
100
AcDbEntity
8
0
100
AcDbPolyline
90
4
70
1
43
0.0
10
167.06249999999997
20
-375.59264101846077
10
171.41249999999999
20
-375.59264101846077
10
171.41249999999999
20
-363.09264101846077
10
167.06249999999997
20
-363.09264101846077
0
LWPOLYLINE
5
149
100
AcDbEntity
8
0
100
AcDbPolyline
90
4
70
1
43
0.0
10
167.06249999999997
20
-450.59264101846077
10
171.41249999999999
20
-450.59264101846077
10
171.41249999999999
20
-438.09264101846077
10
167.06249999999997
20
-438.09264101846077
0
LWPOLYLINE
5
150
100
AcDbEntity
8
0
100
AcDbPolyline
90
4
70
1
43
0.0
10
167.06249999999997
20
-350.59264101846077
10
171.41249999999999
20
-350.59264101846077
10
171.41249999999999
20
-338.09264101846077
10
167.06249999999997
20
-338.09264101846077
0
LWPOLYLINE
5
151
100
AcDbEntity
8
0
100
AcDbPolyline
90
4
70
1
43
0.0
10
167.06249999999997
20
-300.59264101846082
10
171.41249999999999
20
-300.59264101846082
10
171.41249999999999
20
-288.09264101846082
10
167.06249999999997
20
-288.09264101846082
0
LWPOLYLINE
5
152
100
AcDbEntity
8
0
100
AcDbPolyline
90
4
70
1
43
0.0
10
167.06249999999997
20
-400.59264101846077
10
171.41249999999999
20
-400.59264101846077
10
171.41249999999999
20
-388.09264101846077
10
167.06249999999997
20
-388.09264101846077
0
LWPOLYLINE
5
153
100
AcDbEntity
8
0
100
AcDbPolyline
90
4
70
1
43
0.0
10
167.06249999999997
20
-425.59264101846077
10
171.41249999999999
20
-425.59264101846077
10
171.41249999999999
20
-413.09264101846077
10
167.06249999999997
20
-413.09264101846077
0
LWPOLYLINE
5
154
100
AcDbEntity
8
0
100
AcDbPolyline
90
4
70
1
43
0.0
10
167.06249999999997
20
-325.59264101846077
10
171.41249999999999
20
-325.59264101846077
10
171.41249999999999
20
-313.09264101846082
10
167.06249999999997
20
-313.09264101846082
0
LWPOLYLINE
5
155
100
AcDbEntity
8
0
100
AcDbPolyline
90
4
70
1
43
0.0
10
-202.93750000000003
20
-375.59264101846077
10
-198.58750000000001
20
-375.59264101846077
10
-198.58750000000001
20
-363.09264101846077
10
-202.93750000000003
20
-363.09264101846077
0
LWPOLYLINE
5
156
100
AcDbEntity
8
0
100
AcDbPolyline
90
4
70
1
43
0.0
10
-202.93750000000003
20
-450.59264101846077
10
-198.58750000000001
20
-450.59264101846077
10
-198.58750000000001
20
-438.09264101846077
10
-202.93750000000003
20
-438.09264101846077
0
LWPOLYLINE
5
157
100
AcDbEntity
8
0
100
AcDbPolyline
90
4
70
1
43
0.0
10
-202.93750000000003
20
-350.59264101846077
10
-198.58750000000001
20
-350.59264101846077
10
-198.58750000000001
20
-338.09264101846077
10
-202.93750000000003
20
-338.09264101846077
0
LWPOLYLINE
5
158
100
AcDbEntity
8
0
100
AcDbPolyline
90
4
70
1
43
0.0
10
-202.93750000000003
20
-300.59264101846082
10
-198.58750000000001
20
-300.59264101846082
10
-198.58750000000001
20
-288.09264101846082
10
-202.93750000000003
20
-288.09264101846082
0
LWPOLYLINE
5
159
100
AcDbEntity
8
0
100
AcDbPolyline
90
4
70
1
43
0.0
10
-202.93750000000003
20
-400.59264101846077
10
-198.58750000000001
20
-400.59264101846077
10
-198.58750000000001
20
-388.09264101846077
10
-202.93750000000003
20
-388.09264101846077
0
LWPOLYLINE
5
160
100
AcDbEntity
8
0
100
AcDbPolyline
90
4
70
1
43
0.0
10
-202.93750000000003
20
-425.59264101846077
10
-198.58750000000001
20
-425.59264101846077
10
-198.58750000000001
20
-413.09264101846077
10
-202.93750000000003
20
-413.09264101846077
0
LWPOLYLINE
5
161
100
AcDbEntity
8
0
100
AcDbPolyline
90
4
70
1
43
0.0
10
-202.93750000000003
20
-325.59264101846077
10
-198.58750000000001
20
-325.59264101846077
10
-198.58750000000001
20
-313.09264101846082
10
-202.93750000000003
20
-313.09264101846082
0
LINE
5
162
100
AcDbEntity
8
0
100
AcDbLine
10
171.41249999999999
20
-87.5
30
0
11
171.41249999999999
21
-100
31
0
0
LINE
5
163
100
AcDbEntity
8
0
100
AcDbLine
10
-202.93750000000003
20
-100
30
0
11
-202.93750000000003
21
-87.5
31
0
0
LINE
5
164
100
AcDbEntity
8
0
100
AcDbLine
10
-198.58750000000001
20
-87.5
30
0
11
-198.58750000000001
21
-100
31
0
0
LINE
5
165
100
AcDbEntity
8
0
100
AcDbLine
10
167.06249999999997
20
-100
30
0
11
167.06249999999997
21
-87.5
31
0
0
LINE
5
166
100
AcDbEntity
8
0
100
AcDbLine
10
176.49159999999998
20
270.14802979989241
30
0
11
124.00333092388641
21
270.14802979989236
31
0
0
LINE
5
167
100
AcDbEntity
8
0
100
AcDbLine
10
176.49159999999998
20
260.52580122846388
30
0
11
124.00333092388641
21
260.52580122846382
31
0
0
LINE
5
168
100
AcDbEntity
8
0
100
AcDbLine
10
170.49159999999998
20
265.33691551417814
30
0
11
71.515061847772898
21
265.33691551417814
31
0
0
LINE
5
169
100
AcDbEntity
8
0
100
AcDbLine
10
170.49159999999998
20
255.71468694274955
30
0
11
71.515061847772898
21
255.71468694274955
31
0
0
LINE
5
170
100
AcDbEntity
8
0
100
AcDbLine
10
176.49159999999998
20
250.90357265703528
30
0
11
124.00333092388641
21
250.90357265703523
31
0
0
LINE
5
171
100
AcDbEntity
8
0
100
AcDbLine
10
170.49159999999998
20
246.09245837132102
30
0
11
71.515061847772898
21
246.09245837132102
31
0
0
LINE
5
172
100
AcDbEntity
8
0
100
AcDbLine
10
176.49159999999998
20
241.28134408560669
30
0
11
124.00333092388641
21
241.28134408560666
31
0
0
LINE
5
173
100
AcDbEntity
8
0
100
AcDbLine
10
170.49159999999998
20
236.47022979989242
30
0
11
71.515061847772898
21
236.47022979989242
31
0
0
LINE
5
174
100
AcDbEntity
8
0
100
AcDbLine
10
176.49159999999998
20
231.65911551417815
30
0
11
124.00333092388641
21
231.6591155141781
31
0
0
LINE
5
175
100
AcDbEntity
8
0
100
AcDbLine
10
170.49159999999998
20
226.84800122846383
30
0
11
71.515061847772898
21
226.84800122846383
31
0
0
LINE
5
176
100
AcDbEntity
8
0
100
AcDbLine
10
176.49159999999998
20
222.03688694274956
30
0
11
124.00333092388641
21
222.0368869427495
31
0
0
LINE
5
177
100
AcDbEntity
8
0
100
AcDbLine
10
170.49159999999998
20
217.22577265703529
30
0
11
71.515061847772898
21
217.22577265703529
31
0
0
LINE
5
178
100
AcDbEntity
8
0
100
AcDbLine
10
176.49159999999998
20
212.41465837132097
30
0
11
124.00333092388641
21
212.41465837132094
31
0
0
LINE
5
179
100
AcDbEntity
8
0
100
AcDbLine
10
170.49159999999998
20
207.6035440856067
30
0
11
71.515061847772898
21
207.6035440856067
31
0
0
LINE
5
180
100
AcDbEntity
8
0
100
AcDbLine
10
176.49159999999998
20
202.79242979989243
30
0
11
124.00333092388641
21
202.79242979989237
31
0
0
LINE
5
181
100
AcDbEntity
8
0
100
AcDbLine
10
170.49159999999998
20
197.98131551417811
30
0
11
71.515061847772898
21
197.98131551417811
31
0
0
LINE
5
182
100
AcDbEntity
8
0
100
AcDbLine
10
176.49159999999998
20
193.17020122846384
30
0
11
124.00333092388641
21
193.17020122846378
31
0
0
LINE
5
183
100
AcDbEntity
8
0
100
AcDbLine
10
170.49159999999998
20
188.35908694274957
30
0
11
71.515061847772898
21
188.35908694274957
31
0
0
LINE
5
184
100
AcDbEntity
8
0
100
AcDbLine
10
176.49159999999998
20
173.92574408560671
30
0
11
124.00333092388641
21
173.92574408560665
31
0
0
LINE
5
185
100
AcDbEntity
8
0
100
AcDbLine
10
176.49159999999998
20
183.54797265703525
30
0
11
124.00333092388641
21
183.54797265703522
31
0
0
LINE
5
186
100
AcDbEntity
8
0
100
AcDbLine
10
170.49159999999998
20
178.73685837132101
30
0
11
71.515061847772898
21
178.73685837132101
31
0
0
LINE
5
187
100
AcDbEntity
8
0
100
AcDbLine
10
170.49159999999998
20
169.11462979989241
30
0
11
71.515061847772898
21
169.11462979989241
31
0
0
LINE
5
188
100
AcDbEntity
8
0
100
AcDbLine
10
170.49159999999998
20
149.87017265703525
30
0
11
71.515061847772898
21
149.87017265703525
31
0
0
LINE
5
189
100
AcDbEntity
8
0
100
AcDbLine
10
176.49159999999998
20
145.05905837132099
30
0
11
124.00333092388641
21
145.05905837132093
31
0
0
LINE
5
190
100
AcDbEntity
8
0
100
AcDbLine
10
176.49159999999998
20
154.68128694274955
30
0
11
124.00333092388641
21
154.68128694274949
31
0
0
LINE
5
191
100
AcDbEntity
8
0
100
AcDbLine
10
170.49159999999998
20
159.49240122846385
30
0
11
71.515061847772898
21
159.49240122846385
31
0
0
LINE
5
192
100
AcDbEntity
8
0
100
AcDbLine
10
176.49159999999998
20
164.30351551417812
30
0
11
124.00333092388641
21
164.30351551417806
31
0
0
LINE
5
193
100
AcDbEntity
8
0
100
AcDbLine
10
170.49159999999998
20
140.24794408560669
30
0
11
71.515061847772898
21
140.24794408560669
31
0
0
LINE
5
194
100
AcDbEntity
8
0
100
AcDbLine
10
176.49159999999998
20
135.43682979989239
30
0
11
124.00333092388641
21
135.43682979989234
31
0
0
LINE
5
195
100
AcDbEntity
8
0
100
AcDbLine
10
170.49159999999998
20
130.62571551417813
30
0
11
71.515061847772898
21
130.62571551417813
31
0
0
LINE
5
196
100
AcDbEntity
8
0
100
AcDbLine
10
176.49159999999998
20
125.81460122846381
30
0
11
124.00333092388641
21
125.81460122846379
31
0
0
LINE
5
197
100
AcDbEntity
8
0
100
AcDbLine
10
170.49159999999998
20
121.00348694274955
30
0
11
71.515061847772898
21
121.00348694274955
31
0
0
LINE
5
198
100
AcDbEntity
8
0
100
AcDbLine
10
176.49159999999998
20
116.19237265703525
30
0
11
124.00333092388641
21
116.19237265703521
31
0
0
LINE
5
199
100
AcDbEntity
8
0
100
AcDbLine
10
170.49159999999998
20
111.38125837132097
30
0
11
71.515061847772898
21
111.38125837132097
31
0
0
LINE
5
200
100
AcDbEntity
8
0
100
AcDbLine
10
118.00333092388642
20
270.14802979989236
30
0
11
29.757530923818845
21
270.14802979989241
31
0
0
LINE
5
201
100
AcDbEntity
8
0
100
AcDbLine
10
65.515061847772927
20
265.33691551401341
30
0
11
-12.000000000170044
21
265.3369155140133
31
0
0
LINE
5
202
100
AcDbEntity
8
0
100
AcDbLine
10
118.00333092388642
20
260.52580122846382
30
0
11
29.757530923818845
21
260.52580122846388
31
0
0
LINE
5
203
100
AcDbEntity
8
0
100
AcDbLine
10
65.515061847772927
20
255.71468694258485
30
0
11
-12.000000000170044
21
255.71468694258473
31
0
0
LINE
5
204
100
AcDbEntity
8
0
100
AcDbLine
10
65.515061847772927
20
246.09245837115625
30
0
11
-12.000000000170044
21
246.09245837115617
31
0
0
LINE
5
205
100
AcDbEntity
8
0
100
AcDbLine
10
118.00333092388642
20
250.9035726570352
30
0
11
29.757530923818845
21
250.90357265703528
31
0
0
LINE
5
206
100
AcDbEntity
8
0
100
AcDbLine
10
118.00333092388642
20
241.28134408560663
30
0
11
29.757530923818845
21
241.28134408560669
31
0
0
LINE
5
207
100
AcDbEntity
8
0
100
AcDbLine
10
65.515061847772927
20
236.47022979972769
30
0
11
-12.000000000170044
21
236.47022979972758
31
0
0
LINE
5
208
100
AcDbEntity
8
0
100
AcDbLine
10
118.00333092388642
20
231.65911551417807
30
0
11
29.757530923818845
21
231.65911551417815
31
0
0
LINE
5
209
100
AcDbEntity
8
0
100
AcDbLine
10
65.515061847772927
20
226.84800122829913
30
0
11
-12.000000000170044
21
226.84800122829901
31
0
0
LINE
5
210
100
AcDbEntity
8
0
100
AcDbLine
10
118.00333092388642
20
222.03688694274948
30
0
11
29.757530923818845
21
222.03688694274956
31
0
0
LINE
5
211
100
AcDbEntity
8
0
100
AcDbLine
10
65.515061847772927
20
217.22577265687053
30
0
11
-12.000000000170044
21
217.22577265687045
31
0
0
LINE
5
212
100
AcDbEntity
8
0
100
AcDbLine
10
118.00333092388642
20
212.41465837132091
30
0
11
29.757530923818845
21
212.41465837132097
31
0
0
LINE
5
213
100
AcDbEntity
8
0
100
AcDbLine
10
65.515061847772927
20
207.60354408544197
30
0
11
-12.000000000170044
21
207.60354408544185
31
0
0
LINE
5
214
100
AcDbEntity
8
0
100
AcDbLine
10
118.00333092388642
20
202.79242979989235
30
0
11
29.757530923818845
21
202.79242979989243
31
0
0
LINE
5
215
100
AcDbEntity
8
0
100
AcDbLine
10
65.515061847772927
20
197.9813155140134
30
0
11
-12.000000000170044
21
197.98131551401329
31
0
0
LINE
5
216
100
AcDbEntity
8
0
100
AcDbLine
10
118.00333092388642
20
193.17020122846375
30
0
11
29.757530923818845
21
193.17020122846384
31
0
0
LINE
5
217
100
AcDbEntity
8
0
100
AcDbLine
10
118.00333092388642
20
183.54797265703519
30
0
11
29.757530923818845
21
183.54797265703525
31
0
0
LINE
5
218
100
AcDbEntity
8
0
100
AcDbLine
10
65.515061847772927
20
188.35908694258481
30
0
11
-12.000000000170044
21
188.35908694258472
31
0
0
LINE
5
219
100
AcDbEntity
8
0
100
AcDbLine
10
65.515061847772927
20
178.73685837115625
30
0
11
-12.000000000170044
21
178.73685837115613
31
0
0
LINE
5
220
100
AcDbEntity
8
0
100
AcDbLine
10
118.00333092388642
20
173.92574408560662
30
0
11
29.757530923818845
21
173.92574408560671
31
0
0
LINE
5
221
100
AcDbEntity
8
0
100
AcDbLine
10
65.515061847772927
20
169.11462979972768
30
0
11
-12.000000000170044
21
169.11462979972757
31
0
0
LINE
5
222
100
AcDbEntity
8
0
100
AcDbLine
10
118.00333092388642
20
164.30351551417803
30
0
11
29.757530923818845
21
164.30351551417812
31
0
0
LINE
5
223
100
AcDbEntity
8
0
100
AcDbLine
10
65.515061847772927
20
159.49240122829909
30
0
11
-12.000000000170044
21
159.492401228299
31
0
0
LINE
5
224
100
AcDbEntity
8
0
100
AcDbLine
10
118.00333092388642
20
154.68128694274947
30
0
11
29.757530923818845
21
154.68128694274955
31
0
0
LINE
5
225
100
AcDbEntity
8
0
100
AcDbLine
10
65.515061847772927
20
149.87017265687052
30
0
11
-12.000000000170044
21
149.87017265687041
31
0
0
LINE
5
226
100
AcDbEntity
8
0
100
AcDbLine
10
118.00333092388642
20
145.0590583713209
30
0
11
29.757530923818845
21
145.05905837132099
31
0
0
LINE
5
227
100
AcDbEntity
8
0
100
AcDbLine
10
118.00333092388642
20
135.43682979989231
30
0
11
29.757530923818845
21
135.43682979989239
31
0
0
LINE
5
228
100
AcDbEntity
8
0
100
AcDbLine
10
65.515061847772927
20
140.24794408544196
30
0
11
-12.000000000170044
21
140.24794408544184
31
0
0
LINE
5
229
100
AcDbEntity
8
0
100
AcDbLine
10
118.00333092388642
20
125.81460122846374
30
0
11
29.757530923818845
21
125.81460122846381
31
0
0
LINE
5
230
100
AcDbEntity
8
0
100
AcDbLine
10
65.515061847772927
20
130.62571551401336
30
0
11
-12.000000000170044
21
130.62571551401328
31
0
0
LINE
5
231
100
AcDbEntity
8
0
100
AcDbLine
10
65.515061847772927
20
121.0034869425848
30
0
11
-12.000000000170044
21
121.0034869425847
31
0
0
LINE
5
232
100
AcDbEntity
8
0
100
AcDbLine
10
118.00333092388642
20
116.19237265703518
30
0
11
29.757530923818845
21
116.19237265703525
31
0
0
LINE
5
233
100
AcDbEntity
8
0
100
AcDbLine
10
65.515061847772927
20
111.38125837115624
30
0
11
-12.000000000170044
21
111.38125837115612
31
0
0
LINE
5
234
100
AcDbEntity
8
0
100
AcDbLine
10
23.757530923818919
20
270.14802979989241
30
0
11
-59.512190298777092
21
270.14802979989241
31
0
0
LINE
5
235
100
AcDbEntity
8
0
100
AcDbLine
10
-18.000000000170047
20
265.33691551400403
30
0
11
-107.0243805974318
21
265.33691551386545
31
0
0
LINE
5
236
100
AcDbEntity
8
0
100
AcDbLine
10
23.757530923818919
20
260.52580122846388
30
0
11
-59.512190298777092
21
260.52580122846388
31
0
0
LINE
5
237
100
AcDbEntity
8
0
100
AcDbLine
10
-18.000000000170047
20
255.71468694257547
30
0
11
-107.0243805974318
21
255.71468694243688
31
0
0
LINE
5
238
100
AcDbEntity
8
0
100
AcDbLine
10
23.757530923818919
20
250.90357265703528
30
0
11
-59.512190298777092
21
250.90357265703528
31
0
0
LINE
5
239
100
AcDbEntity
8
0
100
AcDbLine
10
-18.000000000170047
20
246.0924583711469
30
0
11
-107.0243805974318
21
246.09245837100832
31
0
0
LINE
5
240
100
AcDbEntity
8
0
100
AcDbLine
10
23.757530923818919
20
241.28134408560669
30
0
11
-59.512190298777092
21
241.28134408560669
31
0
0
LINE
5
241
100
AcDbEntity
8
0
100
AcDbLine
10
-18.000000000170047
20
236.47022979971834
30
0
11
-107.0243805974318
21
236.47022979957973
31
0
0
LINE
5
242
100
AcDbEntity
8
0
100
AcDbLine
10
23.757530923818919
20
231.65911551417815
30
0
11
-59.512190298777092
21
231.65911551417815
31
0
0
LINE
5
243
100
AcDbEntity
8
0
100
AcDbLine
10
-18.000000000170047
20
226.84800122828975
30
0
11
-107.0243805974318
21
226.84800122815116
31
0
0
LINE
5
244
100
AcDbEntity
8
0
100
AcDbLine
10
23.757530923818919
20
222.03688694274956
30
0
11
-59.512190298777092
21
222.03688694274956
31
0
0
LINE
5
245
100
AcDbEntity
8
0
100
AcDbLine
10
-18.000000000170047
20
217.22577265686118
30
0
11
-107.0243805974318
21
217.2257726567226
31
0
0
LINE
5
246
100
AcDbEntity
8
0
100
AcDbLine
10
23.757530923818919
20
212.41465837132097
30
0
11
-59.512190298777092
21
212.41465837132097
31
0
0
LINE
5
247
100
AcDbEntity
8
0
100
AcDbLine
10
-18.000000000170047
20
207.60354408543262
30
0
11
-107.0243805974318
21
207.603544085294
31
0
0
LINE
5
248
100
AcDbEntity
8
0
100
AcDbLine
10
23.757530923818919
20
202.79242979989243
30
0
11
-59.512190298777092
21
202.79242979989243
31
0
0
LINE
5
249
100
AcDbEntity
8
0
100
AcDbLine
10
-18.000000000170047
20
197.98131551400402
30
0
11
-107.0243805974318
21
197.98131551386544
31
0
0
LINE
5
250
100
AcDbEntity
8
0
100
AcDbLine
10
23.757530923818919
20
193.17020122846384
30
0
11
-59.512190298777092
21
193.17020122846384
31
0
0
LINE
5
251
100
AcDbEntity
8
0
100
AcDbLine
10
23.757530923818919
20
183.54797265703525
30
0
11
-59.512190298777092
21
183.54797265703525
31
0
0
LINE
5
252
100
AcDbEntity
8
0
100
AcDbLine
10
-18.000000000170047
20
188.35908694257546
30
0
11
-107.0243805974318
21
188.35908694243687
31
0
0
LINE
5
253
100
AcDbEntity
8
0
100
AcDbLine
10
-18.000000000170047
20
178.73685837114692
30
0
11
-107.0243805974318
21
178.73685837100834
31
0
0
LINE
5
254
100
AcDbEntity
8
0
100
AcDbLine
10
23.757530923818919
20
173.92574408560671
30
0
11
-59.512190298777092
21
173.92574408560671
31
0
0
LINE
5
255
100
AcDbEntity
8
0
100
AcDbLine
10
23.757530923818919
20
164.30351551417812
30
0
11
-59.512190298777092
21
164.30351551417812
31
0
0
LINE
5
256
100
AcDbEntity
8
0
100
AcDbLine
10
-18.000000000170047
20
169.11462979971833
30
0
11
-107.0243805974318
21
169.11462979957975
31
0
0
LINE
5
257
100
AcDbEntity
8
0
100
AcDbLine
10
-18.000000000170047
20
159.49240122828974
30
0
11
-107.0243805974318
21
159.49240122815115
31
0
0
LINE
5
258
100
AcDbEntity
8
0
100
AcDbLine
10
23.757530923818919
20
154.68128694274955
30
0
11
-59.512190298777092
21
154.68128694274955
31
0
0
LINE
5
259
100
AcDbEntity
8
0
100
AcDbLine
10
-18.000000000170047
20
149.87017265686117
30
0
11
-107.0243805974318
21
149.87017265672259
31
0
0
LINE
5
260
100
AcDbEntity
8
0
100
AcDbLine
10
23.757530923818919
20
145.05905837132099
30
0
11
-59.512190298777092
21
145.05905837132099
31
0
0
LINE
5
261
100
AcDbEntity
8
0
100
AcDbLine
10
-18.000000000170047
20
140.24794408543261
30
0
11
-107.0243805974318
21
140.24794408529402
31
0
0
LINE
5
262
100
AcDbEntity
8
0
100
AcDbLine
10
-18.000000000170047
20
130.62571551400401
30
0
11
-107.0243805974318
21
130.62571551386543
31
0
0
LINE
5
263
100
AcDbEntity
8
0
100
AcDbLine
10
23.757530923818919
20
116.19237265703525
30
0
11
-59.512190298777092
21
116.19237265703525
31
0
0
LINE
5
264
100
AcDbEntity
8
0
100
AcDbLine
10
23.757530923818919
20
125.81460122846381
30
0
11
-59.512190298777092
21
125.81460122846381
31
0
0
LINE
5
265
100
AcDbEntity
8
0
100
AcDbLine
10
-18.000000000170047
20
121.00348694257546
30
0
11
-107.0243805974318
21
121.00348694243687
31
0
0
LINE
5
266
100
AcDbEntity
8
0
100
AcDbLine
10
-18.000000000170047
20
111.38125837114688
30
0
11
-107.0243805974318
21
111.3812583710083
31
0
0
LINE
5
267
100
AcDbEntity
8
0
100
AcDbLine
10
-65.512190298777085
20
270.14802979989241
30
0
11
-153.75799029871746
21
270.14802979989241
31
0
0
LINE
5
268
100
AcDbEntity
8
0
100
AcDbLine
10
-113.02438059743181
20
265.33691551386573
30
0
11
-200.49159999999998
21
265.33691551386573
31
0
0
LINE
5
269
100
AcDbEntity
8
0
100
AcDbLine
10
-65.512190298777085
20
260.52580122846388
30
0
11
-153.75799029871746
21
260.52580122846388
31
0
0
LINE
5
270
100
AcDbEntity
8
0
100
AcDbLine
10
-113.02438059743181
20
255.7146869424372
30
0
11
-200.49159999999998
21
255.71468694243717
31
0
0
LINE
5
271
100
AcDbEntity
8
0
100
AcDbLine
10
-65.512190298777085
20
241.28134408560669
30
0
11
-153.75799029871746
21
241.28134408560669
31
0
0
LINE
5
272
100
AcDbEntity
8
0
100
AcDbLine
10
-65.512190298777085
20
250.90357265703528
30
0
11
-153.75799029871746
21
250.90357265703528
31
0
0
LINE
5
273
100
AcDbEntity
8
0
100
AcDbLine
10
-113.02438059743181
20
236.47022979958001
30
0
11
-200.49159999999998
21
236.47022979957998
31
0
0
LINE
5
274
100
AcDbEntity
8
0
100
AcDbLine
10
-65.512190298777085
20
231.65911551417815
30
0
11
-153.75799029871746
21
231.65911551417815
31
0
0
LINE
5
275
100
AcDbEntity
8
0
100
AcDbLine
10
-113.02438059743181
20
226.84800122815147
30
0
11
-200.49159999999998
21
226.84800122815145
31
0
0
LINE
5
276
100
AcDbEntity
8
0
100
AcDbLine
10
-65.512190298777085
20
222.03688694274956
30
0
11
-153.75799029871746
21
222.03688694274956
31
0
0
LINE
5
277
100
AcDbEntity
8
0
100
AcDbLine
10
-113.02438059743181
20
217.22577265672288
30
0
11
-200.49159999999998
21
217.22577265672285
31
0
0
LINE
5
278
100
AcDbEntity
8
0
100
AcDbLine
10
-65.512190298777085
20
212.41465837132097
30
0
11
-153.75799029871746
21
212.41465837132097
31
0
0
LINE
5
279
100
AcDbEntity
8
0
100
AcDbLine
10
-65.512190298777085
20
202.79242979989243
30
0
11
-153.75799029871746
21
202.79242979989243
31
0
0
LINE
5
280
100
AcDbEntity
8
0
100
AcDbLine
10
-113.02438059743181
20
207.60354408529429
30
0
11
-200.49159999999998
21
207.60354408529426
31
0
0
LINE
5
281
100
AcDbEntity
8
0
100
AcDbLine
10
-113.02438059743181
20
197.98131551386575
30
0
11
-200.49159999999998
21
197.98131551386572
31
0
0
LINE
5
282
100
AcDbEntity
8
0
100
AcDbLine
10
-65.512190298777085
20
193.17020122846384
30
0
11
-153.75799029871746
21
193.17020122846384
31
0
0
LINE
5
283
100
AcDbEntity
8
0
100
AcDbLine
10
-113.02438059743181
20
188.35908694243716
30
0
11
-200.49159999999998
21
188.35908694243713
31
0
0
LINE
5
284
100
AcDbEntity
8
0
100
AcDbLine
10
-65.512190298777085
20
183.54797265703525
30
0
11
-153.75799029871746
21
183.54797265703525
31
0
0
LINE
5
285
100
AcDbEntity
8
0
100
AcDbLine
10
-113.02438059743181
20
178.73685837100857
30
0
11
-200.49159999999998
21
178.73685837100854
31
0
0
LINE
5
286
100
AcDbEntity
8
0
100
AcDbLine
10
-113.02438059743181
20
169.11462979958003
30
0
11
-200.49159999999998
21
169.11462979958
31
0
0
LINE
5
287
100
AcDbEntity
8
0
100
AcDbLine
10
-65.512190298777085
20
173.92574408560671
30
0
11
-153.75799029871746
21
173.92574408560671
31
0
0
LINE
5
288
100
AcDbEntity
8
0
100
AcDbLine
10
-65.512190298777085
20
164.30351551417812
30
0
11
-153.75799029871746
21
164.30351551417812
31
0
0
LINE
5
289
100
AcDbEntity
8
0
100
AcDbLine
10
-113.02438059743181
20
159.49240122815144
30
0
11
-200.49159999999998
21
159.49240122815141
31
0
0
LINE
5
290
100
AcDbEntity
8
0
100
AcDbLine
10
-65.512190298777085
20
154.68128694274955
30
0
11
-153.75799029871746
21
154.68128694274955
31
0
0
LINE
5
291
100
AcDbEntity
8
0
100
AcDbLine
10
-113.02438059743181
20
149.87017265672287
30
0
11
-200.49159999999998
21
149.87017265672284
31
0
0
LINE
5
292
100
AcDbEntity
8
0
100
AcDbLine
10
-65.512190298777085
20
145.05905837132099
30
0
11
-153.75799029871746
21
145.05905837132099
31
0
0
LINE
5
293
100
AcDbEntity
8
0
100
AcDbLine
10
-65.512190298777085
20
135.43682979989239
30
0
11
-153.75799029871746
21
135.43682979989239
31
0
0
LINE
5
294
100
AcDbEntity
8
0
100
AcDbLine
10
-113.02438059743181
20
140.24794408529431
30
0
11
-200.49159999999998
21
140.24794408529428
31
0
0
LINE
5
295
100
AcDbEntity
8
0
100
AcDbLine
10
-113.02438059743181
20
130.62571551386571
30
0
11
-200.49159999999998
21
130.62571551386569
31
0
0
LINE
5
296
100
AcDbEntity
8
0
100
AcDbLine
10
-65.512190298777085
20
125.81460122846381
30
0
11
-153.75799029871746
21
125.81460122846381
31
0
0
LINE
5
297
100
AcDbEntity
8
0
100
AcDbLine
10
-113.02438059743181
20
121.00348694243715
30
0
11
-200.49159999999998
21
121.00348694243712
31
0
0
LINE
5
298
100
AcDbEntity
8
0
100
AcDbLine
10
-113.02438059743181
20
111.38125837100858
30
0
11
-200.49159999999998
21
111.38125837100856
31
0
0
LINE
5
299
100
AcDbEntity
8
0
100
AcDbLine
10
-65.512190298777085
20
116.19237265703525
30
0
11
-153.75799029871746
21
116.19237265703525
31
0
0
LINE
5
300
100
AcDbEntity
8
0
100
AcDbLine
10
-159.75799029871752
20
270.14802979989236
30
0
11
-206.49159999999998
21
270.14802979989241
31
0
0
LINE
5
301
100
AcDbEntity
8
0
100
AcDbLine
10
-159.75799029871752
20
260.52580122846382
30
0
11
-206.49159999999998
21
260.52580122846382
31
0
0
LINE
5
302
100
AcDbEntity
8
0
100
AcDbLine
10
-159.75799029871752
20
250.90357265703523
30
0
11
-206.49159999999998
21
250.90357265703528
31
0
0
LINE
5
303
100
AcDbEntity
8
0
100
AcDbLine
10
-113.02438059743181
20
246.0924583710086
30
0
11
-200.49159999999998
21
246.09245837100858
31
0
0
LINE
5
304
100
AcDbEntity
8
0
100
AcDbLine
10
-159.75799029871752
20
241.28134408560666
30
0
11
-206.49159999999998
21
241.28134408560669
31
0
0
LINE
5
305
100
AcDbEntity
8
0
100
AcDbLine
10
-159.75799029871752
20
231.65911551417807
30
0
11
-206.49159999999998
21
231.6591155141781
31
0
0
LINE
5
306
100
AcDbEntity
8
0
100
AcDbLine
10
-159.75799029871752
20
222.0368869427495
30
0
11
-206.49159999999998
21
222.03688694274956
31
0
0
LINE
5
307
100
AcDbEntity
8
0
100
AcDbLine
10
-159.75799029871752
20
212.41465837132094
30
0
11
-206.49159999999998
21
212.41465837132097
31
0
0
LINE
5
308
100
AcDbEntity
8
0
100
AcDbLine
10
-159.75799029871752
20
202.79242979989235
30
0
11
-206.49159999999998
21
202.79242979989237
31
0
0
LINE
5
309
100
AcDbEntity
8
0
100
AcDbLine
10
-159.75799029871752
20
193.17020122846378
30
0
11
-206.49159999999998
21
193.17020122846384
31
0
0
LINE
5
310
100
AcDbEntity
8
0
100
AcDbLine
10
-159.75799029871752
20
183.54797265703525
30
0
11
-206.49159999999998
21
183.54797265703527
31
0
0
LINE
5
311
100
AcDbEntity
8
0
100
AcDbLine
10
-159.75799029871752
20
173.92574408560665
30
0
11
-206.49159999999998
21
173.92574408560671
31
0
0
LINE
5
312
100
AcDbEntity
8
0
100
AcDbLine
10
-159.75799029871752
20
164.30351551417806
30
0
11
-206.49159999999998
21
164.30351551417812
31
0
0
LINE
5
313
100
AcDbEntity
8
0
100
AcDbLine
10
-159.75799029871752
20
154.68128694274949
30
0
11
-206.49159999999998
21
154.68128694274955
31
0
0
LINE
5
314
100
AcDbEntity
8
0
100
AcDbLine
10
-159.75799029871752
20
145.05905837132093
30
0
11
-206.49159999999998
21
145.05905837132099
31
0
0
LINE
5
315
100
AcDbEntity
8
0
100
AcDbLine
10
-159.75799029871752
20
135.43682979989234
30
0
11
-206.49159999999998
21
135.43682979989239
31
0
0
LINE
5
316
100
AcDbEntity
8
0
100
AcDbLine
10
-159.75799029871752
20
125.81460122846379
30
0
11
-206.49159999999998
21
125.81460122846381
31
0
0
LINE
5
317
100
AcDbEntity
8
0
100
AcDbLine
10
-159.75799029871752
20
116.19237265703521
30
0
11
-206.49159999999998
21
116.19237265703525
31
0
0
LINE
5
318
100
AcDbEntity
8
0
100
AcDbLine
10
23.757530923818919
20
135.48816337849848
30
0
11
-59.512190298777092
21
135.48816337836885
31
0
0
ENDSEC
0
SECTION
2
OBJECTS
0
DICTIONARY
5
C
100
AcDbDictionary
3
ACAD_GROUP
350
D
3
ACAD_MLINESTYLE
350
17
0
DICTIONARY
5
D
100
AcDbDictionary
0
DICTIONARY
5
1A
330
C
100
AcDbDictionary
0
DICTIONARY
5
17
100
AcDbDictionary
0
ENDSEC
0
EOF
