0
SECTION
2
HEADER
9
$INSUNITS
70
4
9
$ACADVER
1
AC1014
9
$HANDSEED
5
FFFF
0
ENDSEC
0
SECTION
2
TABLES
0
TABLE
2
VPORT
5
8
100
AcDbSymbolTable
0
ENDTAB
0
TABLE
2
LTYPE
5
5
100
AcDbSymbolTable
0
LTYPE
5
14
100
AcDbSymbolTableRecord
100
AcDbLinetypeTableRecord
2
BYBLOCK
70
0
0
LTYPE
5
15
100
AcDbSymbolTableRecord
100
AcDbLinetypeTableRecord
2
BYLAYER
70
0
0
ENDTAB
0
TABLE
2
LAYER
5
2
100
AcDbSymbolTable
70
2
0
LAYER
5
50
100
AcDbSymbolTableRecord
100
AcDbLayerTableRecord
2
0
70
0
6
CONTINUOUS
0
ENDTAB
0
TABLE
2
STYLE
5
3
100
AcDbSymbolTable
70
1
0
STYLE
5
11
100
AcDbSymbolTableRecord
100
AcDbTextStyleTableRecord
2
STANDARD
70
0
0
ENDTAB
0
TABLE
2
VIEW
5
6
100
AcDbSymbolTable
70
0
0
ENDTAB
0
TABLE
2
UCS
5
7
100
AcDbSymbolTable
70
0
0
ENDTAB
0
TABLE
2
APPID
5
9
100
AcDbSymbolTable
70
2
0
APPID
5
12
100
AcDbSymbolTableRecord
100
AcDbRegAppTableRecord
2
ACAD
70
0
0
ENDTAB
0
TABLE
2
DIMSTYLE
5
A
100
AcDbSymbolTable
70
1
0
ENDTAB
0
TABLE
2
BLOCK_RECORD
5
1
100
AcDbSymbolTable
70
1
0
BLOCK_RECORD
5
1F
100
AcDbSymbolTableRecord
100
AcDbBlockTableRecord
2
*MODEL_SPACE
0
BLOCK_RECORD
5
1B
100
AcDbSymbolTableRecord
100
AcDbBlockTableRecord
2
*PAPER_SPACE
0
ENDTAB
0
ENDSEC
0
SECTION
2
BLOCKS
0
BLOCK
5
20
100
AcDbEntity
100
AcDbBlockBegin
2
*MODEL_SPACE
0
ENDBLK
5
21
100
AcDbEntity
100
AcDbBlockEnd
0
BLOCK
5
1C
100
AcDbEntity
100
AcDbBlockBegin
2
*PAPER_SPACE
0
ENDBLK
5
1D
100
AcDbEntity
100
AcDbBlockEnd
0
ENDSEC
0
SECTION
2
ENTITIES
0
LWPOLYLINE
5
100
100
AcDbEntity
8
0
100
AcDbPolyline
90
67
70
1
43
0.0
10
49.999999999999915
20
-475.06250000000011
42
-0.99999999999999989
10
49.999999999999943
20
-375.06250000000011
10
49.999999999999929
20
-370.71250000000009
10
62.499999999999929
20
-370.71250000000009
10
62.499999999999929
20
-375.06250000000011
10
74.999999999999929
20
-375.06250000000011
10
74.999999999999929
20
-370.71250000000009
10
87.499999999999929
20
-370.71250000000009
10
87.499999999999929
20
-375.06250000000011
10
99.999999999999929
20
-375.06250000000011
10
99.999999999999929
20
-370.71250000000009
10
112.49999999999993
20
-370.71250000000009
10
112.49999999999993
20
-375.06250000000011
10
124.99999999999993
20
-375.06250000000011
10
124.99999999999993
20
-370.71250000000009
10
137.49999999999994
20
-370.71250000000009
10
137.49999999999994
20
-375.06250000000011
10
149.99999999999994
20
-375.06250000000011
10
149.99999999999994
20
-370.71250000000009
10
162.49999999999994
20
-370.71250000000009
10
162.49999999999994
20
-375.06250000000011
10
174.99999999999994
20
-375.06250000000011
10
174.99999999999994
20
-370.71250000000009
10
187.49999999999994
20
-370.71250000000009
10
187.49999999999994
20
-375.06250000000011
10
199.99999999999994
20
-375.06250000000011
10
199.99999999999994
20
-370.71250000000009
10
212.49999999999994
20
-370.71250000000015
10
212.49999999999994
20
-375.06250000000011
10
224.99999999999994
20
-375.06250000000011
10
224.99999999999994
20
-370.71250000000015
10
237.49999999999994
20
-370.71250000000015
10
237.49999999999994
20
-375.06250000000011
10
249.99999999999994
20
-375.06250000000011
10
249.99999999999994
20
-370.71250000000009
42
-0.99999999999999989
10
249.99999999999994
20
-475.06250000000011
10
237.49999999999994
20
-475.06250000000011
10
237.49999999999994
20
-479.41250000000014
10
224.99999999999994
20
-479.41250000000014
10
224.99999999999994
20
-475.06250000000011
10
212.49999999999994
20
-475.06250000000011
10
212.49999999999994
20
-479.41250000000014
10
199.99999999999994
20
-479.41250000000014
10
199.99999999999994
20
-475.06250000000011
10
187.49999999999994
20
-475.06250000000011
10
187.49999999999994
20
-479.41250000000014
10
174.99999999999994
20
-479.41250000000014
10
174.99999999999994
20
-475.06250000000011
10
162.49999999999994
20
-475.06250000000011
10
162.49999999999994
20
-479.41250000000014
10
149.99999999999994
20
-479.41250000000014
10
149.99999999999994
20
-475.06250000000011
10
137.49999999999994
20
-475.06250000000011
10
137.49999999999994
20
-479.41250000000014
10
124.99999999999993
20
-479.41250000000014
10
124.99999999999993
20
-475.06250000000011
10
112.49999999999993
20
-475.06250000000011
10
112.49999999999993
20
-479.41250000000014
10
99.999999999999929
20
-479.41250000000014
10
99.999999999999929
20
-475.06250000000011
10
87.499999999999929
20
-475.06250000000011
10
87.499999999999929
20
-479.41250000000014
10
74.999999999999929
20
-479.41250000000014
10
74.999999999999929
20
-475.06250000000011
10
62.499999999999929
20
-475.06250000000011
10
62.499999999999929
20
-479.41250000000014
10
49.999999999999929
20
-479.41250000000002
0
LWPOLYLINE
5
101
100
AcDbEntity
8
0
100
AcDbPolyline
90
67
70
1
43
0.0
10
222.93749999999994
20
-104.99999999999999
42
-0.99999999999999989
10
322.9375
20
-105.00000000000001
10
327.28749999999997
20
-105
10
327.28749999999997
20
-117.5
10
322.9375
20
-117.5
10
322.9375
20
-130
10
327.28749999999997
20
-130
10
327.28749999999997
20
-142.5
10
322.9375
20
-142.5
10
322.9375
20
-155
10
327.28749999999997
20
-155
10
327.28749999999997
20
-167.5
10
322.9375
20
-167.5
10
322.9375
20
-180
10
327.28749999999997
20
-180
10
327.28749999999997
20
-192.5
10
322.9375
20
-192.5
10
322.9375
20
-205
10
327.28749999999997
20
-205
10
327.28749999999997
20
-217.5
10
322.9375
20
-217.5
10
322.9375
20
-230
10
327.28749999999997
20
-230
10
327.28749999999997
20
-242.5
10
322.9375
20
-242.5
10
322.9375
20
-255
10
327.28749999999997
20
-255
10
327.28749999999997
20
-267.5
10
322.9375
20
-267.5
10
322.9375
20
-280
10
327.28749999999997
20
-280
10
327.28749999999997
20
-292.5
10
322.9375
20
-292.5
10
322.9375
20
-305
10
327.28749999999997
20
-305
42
-0.99999999999999989
10
222.93750000000003
20
-305
10
222.93750000000003
20
-292.5
10
218.58750000000001
20
-292.5
10
218.58750000000001
20
-280
10
222.93750000000003
20
-280
10
222.93750000000003
20
-267.5
10
218.58750000000001
20
-267.5
10
218.58750000000001
20
-255
10
222.93750000000003
20
-255
10
222.93750000000003
20
-242.5
10
218.58750000000001
20
-242.5
10
218.58750000000001
20
-230
10
222.93750000000003
20
-230
10
222.93750000000003
20
-217.5
10
218.58750000000001
20
-217.5
10
218.58750000000001
20
-205
10
222.93750000000003
20
-205
10
222.93750000000003
20
-192.5
10
218.58750000000001
20
-192.5
10
218.58750000000001
20
-180
10
222.93750000000003
20
-180
10
222.93750000000003
20
-167.5
10
218.58750000000001
20
-167.5
10
218.58750000000001
20
-155
10
222.93750000000003
20
-155
10
222.93750000000003
20
-142.5
10
218.58750000000001
20
-142.5
10
218.58750000000001
20
-130
10
222.93750000000003
20
-130
10
222.93750000000003
20
-117.5
10
218.58750000000001
20
-117.5
10
218.58750000000001
20
-105
0
ARC
5
102
100
AcDbEntity
8
0
100
AcDbCircle
10
280.82521598926343
20
153.83124731286441
30
0
40
45.000000000000028
210
-0
220
0
230
1
100
AcDbArc
50
-21.227329133319746
51
50.01827817283818
0
LINE
5
103
100
AcDbEntity
8
0
100
AcDbLine
10
322.77202027106597
20
137.53813187891035
30
0
11
255.19865362687068
21
-36.430241252455673
31
0
0
LINE
5
104
100
AcDbEntity
8
0
100
AcDbLine
10
255.19865362687068
20
-36.430241252455673
30
0
11
259.25351137411167
21
-38.005242411071016
31
0
0
LINE
5
105
100
AcDbEntity
8
0
100
AcDbLine
10
259.25351137411167
20
-38.005242411071016
30
0
11
261.06385753343989
21
-33.344486379759637
31
0
0
LINE
5
106
100
AcDbEntity
8
0
100
AcDbLine
10
261.06385753343989
20
-33.344486379759637
30
0
11
275.04612562737407
21
-38.775524857744301
31
0
0
SPLINE
5
107
100
AcDbEntity
8
0
100
AcDbSpline
70
4
71
5
72
26
73
20
74
0
42
0.000000001
43
0.0000000001
44
0.0000000001
40
0
40
0
40
0
40
0
40
0
40
0
40
0.066666666666666666
40
0.13333333333333333
40
0.20000000000000001
40
0.26666666666666666
40
0.33333333333333331
40
0.39999999999999997
40
0.46666666666666662
40
0.53333333333333333
40
0.59999999999999998
40
0.66666666666666663
40
0.73333333333333328
40
0.79999999999999993
40
0.86666666666666659
40
0.93333333333333324
40
1
40
1
40
1
40
1
40
1
40
1
41
1
41
1
41
1
41
1
41
1
41
1
41
1
41
1
41
1
41
1
41
1
41
1
41
1
41
1
41
1
41
1
41
1
41
1
41
1
41
1
10
275.04612562737407
20
-38.775524857744301
30
0
10
274.68053646776787
20
-39.33547868537886
30
0
10
273.91601225049396
20
-40.424588648137885
30
0
10
272.66918839758745
20
-41.965860834740099
30
0
10
270.80522544479174
20
-43.83475886307842
30
0
10
268.13505838598962
20
-45.853592411526449
30
0
10
265.12716196837181
20
-47.548121804977441
30
0
10
261.7991215752445
20
-48.915825244954831
30
0
10
258.19353220338519
20
-49.964264478154163
30
0
10
254.38795756362771
20
-50.717000465765203
30
0
10
250.48063025111384
20
-51.20703182361062
30
0
10
246.57858690236449
20
-51.471850101489593
30
0
10
242.7850587733279
20
-51.548873834911575
30
0
10
239.18868093550029
20
-51.471842370772833
30
0
10
235.84783292646944
20
-51.266811169363784
30
0
10
232.78909586882608
20
-50.951063766457381
30
0
10
230.57445590807896
20
-50.61824301749148
30
0
10
229.04333377270018
20
-50.325694923872319
30
0
10
228.07989364998241
20
-50.111721899220356
30
0
10
227.61249999999995
20
-50
30
0
0
LINE
5
108
100
AcDbEntity
8
0
100
AcDbLine
10
227.61250000000001
20
-49.999999999999993
30
0
11
227.61249999999995
21
-37.781976967437529
31
0
0
LINE
5
109
100
AcDbEntity
8
0
100
AcDbLine
10
227.61249999999995
20
-37.781976967437529
30
0
11
223.26249999999993
21
-37.781976967437529
31
0
0
LINE
5
110
100
AcDbEntity
8
0
100
AcDbLine
10
223.26249999999993
20
-37.781976967437529
30
0
11
223.26249999999993
21
-42.781976967437529
31
0
0
LINE
5
111
100
AcDbEntity
8
0
100
AcDbLine
10
223.26249999999993
20
-42.781976967437529
30
0
11
219.26249999999996
21
-42.781976967437529
31
0
0
LINE
5
112
100
AcDbEntity
8
0
100
AcDbLine
10
219.26249999999996
20
-42.781976967437529
30
0
11
219.26249999999996
21
-12.781976967437529
31
0
0
LINE
5
113
100
AcDbEntity
8
0
100
AcDbLine
10
219.26249999999996
20
-12.781976967437529
30
0
11
227.61249999999995
21
-12.781976967437529
31
0
0
LINE
5
114
100
AcDbEntity
8
0
100
AcDbLine
10
227.61249999999995
20
-12.781976967437529
30
0
11
227.61249999999995
21
37.218023032562471
31
0
0
LINE
5
115
100
AcDbEntity
8
0
100
AcDbLine
10
227.61249999999995
20
37.218023032562471
30
0
11
223.26249999999993
21
37.218023032562471
31
0
0
LINE
5
116
100
AcDbEntity
8
0
100
AcDbLine
10
223.26249999999993
20
37.218023032562471
30
0
11
223.26249999999993
21
32.218023032562471
31
0
0
LINE
5
117
100
AcDbEntity
8
0
100
AcDbLine
10
223.26249999999993
20
32.218023032562471
30
0
11
219.26249999999996
21
32.218023032562471
31
0
0
LINE
5
118
100
AcDbEntity
8
0
100
AcDbLine
10
219.26249999999996
20
32.218023032562471
30
0
11
219.26249999999996
21
62.218023032562471
31
0
0
LINE
5
119
100
AcDbEntity
8
0
100
AcDbLine
10
219.26249999999996
20
62.218023032562471
30
0
11
227.61249999999995
21
62.218023032562471
31
0
0
LINE
5
120
100
AcDbEntity
8
0
100
AcDbLine
10
227.61249999999995
20
62.218023032562471
30
0
11
227.61249999999995
21
112.21802303256247
31
0
0
LINE
5
121
100
AcDbEntity
8
0
100
AcDbLine
10
227.61249999999995
20
112.21802303256247
30
0
11
223.26249999999993
21
112.21802303256247
31
0
0
LINE
5
122
100
AcDbEntity
8
0
100
AcDbLine
10
223.26249999999993
20
112.21802303256247
30
0
11
223.26249999999993
21
107.21802303256247
31
0
0
LINE
5
123
100
AcDbEntity
8
0
100
AcDbLine
10
223.26249999999993
20
107.21802303256247
30
0
11
219.26249999999996
21
107.21802303256247
31
0
0
LINE
5
124
100
AcDbEntity
8
0
100
AcDbLine
10
219.26249999999996
20
107.21802303256247
30
0
11
219.26249999999996
21
137.21802303256248
31
0
0
LINE
5
125
100
AcDbEntity
8
0
100
AcDbLine
10
219.26249999999996
20
137.21802303256248
30
0
11
227.61249999999995
21
137.21802303256248
31
0
0
LINE
5
126
100
AcDbEntity
8
0
100
AcDbLine
10
227.61249999999995
20
137.21802303256248
30
0
11
227.61249999999995
21
150
31
0
0
ARC
5
127
100
AcDbEntity
8
0
100
AcDbCircle
10
277.61249999999995
20
150
30
0
40
50.000000000000007
210
0
220
-0
230
1
100
AcDbArc
50
50.018278172838158
51
180
0
CIRCLE
5
128
100
AcDbEntity
8
0
100
AcDbCircle
10
265.10400896031763
20
87.843256600971642
30
0
40
22.271845558132924
210
0
220
-0
230
1
0
CIRCLE
5
129
100
AcDbEntity
8
0
100
AcDbCircle
10
277.61249999999995
20
150
30
0
40
32.585318056606162
210
0
220
-0
230
1
0
CIRCLE
5
130
100
AcDbEntity
8
0
100
AcDbCircle
10
248.18520195067762
20
3.7709298447153827
30
0
40
9.1207232234638056
210
0
220
-0
230
1
0
CIRCLE
5
131
100
AcDbEntity
8
0
100
AcDbCircle
10
255.36083748064334
20
39.427839614733351
30
0
40
15.20187513771484
210
0
220
-0
230
1
0
ARC
5
132
100
AcDbEntity
8
0
100
AcDbCircle
10
280.82521598926343
20
403.83124731286443
30
0
40
45.000000000000028
210
-0
220
0
230
1
100
AcDbArc
50
-21.227329133319795
51
50.018278172838613
0
LINE
5
133
100
AcDbEntity
8
0
100
AcDbLine
10
322.77202027106597
20
387.53813187891035
30
0
11
255.19865362687068
21
213.56975874754428
31
0
0
LINE
5
134
100
AcDbEntity
8
0
100
AcDbLine
10
255.19865362687068
20
213.56975874754428
30
0
11
259.25351137411167
21
211.99475758892899
31
0
0
LINE
5
135
100
AcDbEntity
8
0
100
AcDbLine
10
259.25351137411167
20
211.99475758892899
30
0
11
261.06385753343989
21
216.65551362024036
31
0
0
LINE
5
136
100
AcDbEntity
8
0
100
AcDbLine
10
261.06385753343989
20
216.65551362024036
30
0
11
275.04612562737407
21
211.2244751422557
31
0
0
SPLINE
5
137
100
AcDbEntity
8
0
100
AcDbSpline
70
4
71
5
72
26
73
20
74
0
42
0.000000001
43
0.0000000001
44
0.0000000001
40
0
40
0
40
0
40
0
40
0
40
0
40
0.066666666666666666
40
0.13333333333333333
40
0.20000000000000001
40
0.26666666666666666
40
0.33333333333333331
40
0.39999999999999997
40
0.46666666666666662
40
0.53333333333333333
40
0.59999999999999998
40
0.66666666666666663
40
0.73333333333333328
40
0.79999999999999993
40
0.86666666666666659
40
0.93333333333333324
40
1
40
1
40
1
40
1
40
1
40
1
41
1
41
1
41
1
41
1
41
1
41
1
41
1
41
1
41
1
41
1
41
1
41
1
41
1
41
1
41
1
41
1
41
1
41
1
41
1
41
1
10
275.04612562737407
20
211.2244751422557
30
0
10
274.68053646776787
20
210.66452131462114
30
0
10
273.91601225049396
20
209.5754113518621
30
0
10
272.66918839758745
20
208.03413916525989
30
0
10
270.80522544479174
20
206.16524113692157
30
0
10
268.13505838598962
20
204.14640758847355
30
0
10
265.12716196837181
20
202.45187819502257
30
0
10
261.7991215752445
20
201.08417475504518
30
0
10
258.19353220338519
20
200.03573552184582
30
0
10
254.38795756362771
20
199.28299953423479
30
0
10
250.48063025111384
20
198.79296817638937
30
0
10
246.57858690236449
20
198.52814989851041
30
0
10
242.7850587733279
20
198.45112616508843
30
0
10
239.18868093550029
20
198.52815762922717
30
0
10
235.84783292646944
20
198.73318883063621
30
0
10
232.78909586882608
20
199.04893623354263
30
0
10
230.57445590807896
20
199.38175698250853
30
0
10
229.04333377270018
20
199.67430507612767
30
0
10
228.07989364998241
20
199.88827810077964
30
0
10
227.61249999999995
20
200
30
0
0
LINE
5
138
100
AcDbEntity
8
0
100
AcDbLine
10
227.61250000000001
20
200.00000000000003
30
0
11
227.61249999999995
21
212.21802303256248
31
0
0
LINE
5
139
100
AcDbEntity
8
0
100
AcDbLine
10
227.61249999999995
20
212.21802303256248
30
0
11
223.26249999999993
21
212.21802303256248
31
0
0
LINE
5
140
100
AcDbEntity
8
0
100
AcDbLine
10
223.26249999999993
20
212.21802303256248
30
0
11
223.26249999999993
21
207.21802303256248
31
0
0
LINE
5
141
100
AcDbEntity
8
0
100
AcDbLine
10
223.26249999999993
20
207.21802303256248
30
0
11
219.26249999999996
21
207.21802303256248
31
0
0
LINE
5
142
100
AcDbEntity
8
0
100
AcDbLine
10
219.26249999999996
20
207.21802303256248
30
0
11
219.26249999999996
21
237.21802303256248
31
0
0
LINE
5
143
100
AcDbEntity
8
0
100
AcDbLine
10
219.26249999999996
20
237.21802303256248
30
0
11
227.61249999999995
21
237.21802303256248
31
0
0
LINE
5
144
100
AcDbEntity
8
0
100
AcDbLine
10
227.61249999999995
20
237.21802303256248
30
0
11
227.61249999999995
21
287.21802303256248
31
0
0
LINE
5
145
100
AcDbEntity
8
0
100
AcDbLine
10
227.61249999999995
20
287.21802303256248
30
0
11
223.26249999999993
21
287.21802303256248
31
0
0
LINE
5
146
100
AcDbEntity
8
0
100
AcDbLine
10
223.26249999999993
20
287.21802303256248
30
0
11
223.26249999999993
21
282.21802303256248
31
0
0
LINE
5
147
100
AcDbEntity
8
0
100
AcDbLine
10
223.26249999999993
20
282.21802303256248
30
0
11
219.26249999999996
21
282.21802303256248
31
0
0
LINE
5
148
100
AcDbEntity
8
0
100
AcDbLine
10
219.26249999999996
20
282.21802303256248
30
0
11
219.26249999999996
21
312.21802303256248
31
0
0
LINE
5
149
100
AcDbEntity
8
0
100
AcDbLine
10
219.26249999999996
20
312.21802303256248
30
0
11
227.61249999999995
21
312.21802303256248
31
0
0
LINE
5
150
100
AcDbEntity
8
0
100
AcDbLine
10
227.61249999999995
20
312.21802303256248
30
0
11
227.61249999999995
21
362.21802303256248
31
0
0
LINE
5
151
100
AcDbEntity
8
0
100
AcDbLine
10
227.61249999999995
20
362.21802303256248
30
0
11
223.26249999999993
21
362.21802303256248
31
0
0
LINE
5
152
100
AcDbEntity
8
0
100
AcDbLine
10
223.26249999999993
20
362.21802303256248
30
0
11
223.26249999999993
21
357.21802303256248
31
0
0
LINE
5
153
100
AcDbEntity
8
0
100
AcDbLine
10
223.26249999999993
20
357.21802303256248
30
0
11
219.26249999999996
21
357.21802303256248
31
0
0
LINE
5
154
100
AcDbEntity
8
0
100
AcDbLine
10
219.26249999999996
20
357.21802303256248
30
0
11
219.26249999999996
21
387.21802303256248
31
0
0
LINE
5
155
100
AcDbEntity
8
0
100
AcDbLine
10
219.26249999999996
20
387.21802303256248
30
0
11
227.61249999999995
21
387.21802303256248
31
0
0
LINE
5
156
100
AcDbEntity
8
0
100
AcDbLine
10
227.61249999999995
20
387.21802303256248
30
0
11
227.61249999999995
21
400
31
0
0
ARC
5
157
100
AcDbEntity
8
0
100
AcDbCircle
10
277.61249999999995
20
400
30
0
40
50.000000000000014
210
0
220
-0
230
1
100
AcDbArc
50
50.018278172838592
51
180
0
CIRCLE
5
158
100
AcDbEntity
8
0
100
AcDbCircle
10
265.10400896031763
20
337.8432566009717
30
0
40
22.271845558132924
210
0
220
-0
230
1
0
CIRCLE
5
159
100
AcDbEntity
8
0
100
AcDbCircle
10
277.61249999999995
20
400
30
0
40
32.585318056606162
210
0
220
-0
230
1
0
CIRCLE
5
160
100
AcDbEntity
8
0
100
AcDbCircle
10
248.18520195067762
20
253.7709298447154
30
0
40
9.1207232234638056
210
0
220
-0
230
1
0
CIRCLE
5
161
100
AcDbEntity
8
0
100
AcDbCircle
10
255.36083748064334
20
289.42783961473333
30
0
40
15.20187513771484
210
0
220
-0
230
1
0
ENDSEC
0
SECTION
2
OBJECTS
0
DICTIONARY
5
C
100
AcDbDictionary
3
ACAD_GROUP
350
D
3
ACAD_MLINESTYLE
350
17
0
DICTIONARY
5
D
100
AcDbDictionary
0
DICTIONARY
5
1A
330
C
100
AcDbDictionary
0
DICTIONARY
5
17
100
AcDbDictionary
0
ENDSEC
0
EOF
