  0
SECTION
  2
HEADER
  9
$ACADVER
  1
AC1032
  9
$ACADMAINTVER
 90
      110
  9
$DWGCODEPAGE
  3
ANSI_1252
  9
$REQUIREDVERSIONS
160
                 0
  9
$INSBASE
 10
0.0
 20
0.0
 30
0.0
  9
$EXTMIN
 10
1.000000000000000E+20
 20
1.000000000000000E+20
 30
1.000000000000000E+20
  9
$EXTMAX
 10
-1.000000000000000E+20
 20
-1.000000000000000E+20
 30
-1.000000000000000E+20
  9
$LIMMIN
 10
0.0
 20
0.0
  9
$LIMMAX
 10
12.0
 20
9.0
  9
$ORTHOMODE
 70
     0
  9
$REGENMODE
 70
     1
  9
$FILLMODE
 70
     1
  9
$QTEXTMODE
 70
     0
  9
$MIRRTEXT
 70
     0
  9
$LTSCALE
 40
1.0
  9
$ATTMODE
 70
     1
  9
$TEXTSIZE
 40
0.2
  9
$TRACEWID
 40
0.05
  9
$TEXTSTYLE
  7
Standard
  9
$CLAYER
  8
0
  9
$CELTYPE
  6
ByLayer
  9
$CECOLOR
 62
   256
  9
$CELTSCALE
 40
1.0
  9
$DISPSILH
 70
     0
  9
$DIMSCALE
 40
1.0
  9
$DIMASZ
 40
0.18
  9
$DIMEXO
 40
0.0625
  9
$DIMDLI
 40
0.38
  9
$DIMRND
 40
0.0
  9
$DIMDLE
 40
0.0
  9
$DIMEXE
 40
0.18
  9
$DIMTP
 40
0.0
  9
$DIMTM
 40
0.0
  9
$DIMTXT
 40
0.18
  9
$DIMCEN
 40
0.09
  9
$DIMTSZ
 40
0.0
  9
$DIMTOL
 70
     0
  9
$DIMLIM
 70
     0
  9
$DIMTIH
 70
     1
  9
$DIMTOH
 70
     1
  9
$DIMSE1
 70
     0
  9
$DIMSE2
 70
     0
  9
$DIMTAD
 70
     0
  9
$DIMZIN
 70
     0
  9
$DIMBLK
  1

  9
$DIMASO
 70
     1
  9
$DIMSHO
 70
     1
  9
$DIMPOST
  1

  9
$DIMAPOST
  1

  9
$DIMALT
 70
     0
  9
$DIMALTD
 70
     2
  9
$DIMALTF
 40
25.4
  9
$DIMLFAC
 40
1.0
  9
$DIMTOFL
 70
     0
  9
$DIMTVP
 40
0.0
  9
$DIMTIX
 70
     0
  9
$DIMSOXD
 70
     0
  9
$DIMSAH
 70
     0
  9
$DIMBLK1
  1

  9
$DIMBLK2
  1

  9
$DIMSTYLE
  2
Standard
  9
$DIMCLRD
 70
     0
  9
$DIMCLRE
 70
     0
  9
$DIMCLRT
 70
     0
  9
$DIMTFAC
 40
1.0
  9
$DIMGAP
 40
0.09
  9
$DIMJUST
 70
     0
  9
$DIMSD1
 70
     0
  9
$DIMSD2
 70
     0
  9
$DIMTOLJ
 70
     1
  9
$DIMTZIN
 70
     0
  9
$DIMALTZ
 70
     0
  9
$DIMALTTZ
 70
     0
  9
$DIMUPT
 70
     0
  9
$DIMDEC
 70
     4
  9
$DIMTDEC
 70
     4
  9
$DIMALTU
 70
     2
  9
$DIMALTTD
 70
     2
  9
$DIMTXSTY
  7
Standard
  9
$DIMAUNIT
 70
     0
  9
$DIMADEC
 70
     0
  9
$DIMALTRND
 40
0.0
  9
$DIMAZIN
 70
     0
  9
$DIMDSEP
 70
    46
  9
$DIMATFIT
 70
     3
  9
$DIMFRAC
 70
     0
  9
$DIMLDRBLK
  1

  9
$DIMLUNIT
 70
     2
  9
$DIMLWD
 70
    -2
  9
$DIMLWE
 70
    -2
  9
$DIMTMOVE
 70
     0
  9
$DIMFXL
 40
1.0
  9
$DIMFXLON
 70
     0
  9
$DIMJOGANG
 40
0.7853981633974483
  9
$DIMTFILL
 70
     0
  9
$DIMTFILLCLR
 70
     0
  9
$DIMARCSYM
 70
     0
  9
$DIMLTYPE
  6

  9
$DIMLTEX1
  6

  9
$DIMLTEX2
  6

  9
$DIMTXTDIRECTION
 70
     0
  9
$LUNITS
 70
     2
  9
$LUPREC
 70
     4
  9
$SKETCHINC
 40
0.1
  9
$FILLETRAD
 40
0.0
  9
$AUNITS
 70
     0
  9
$AUPREC
 70
     0
  9
$MENU
  1
.
  9
$ELEVATION
 40
0.0
  9
$PELEVATION
 40
0.0
  9
$THICKNESS
 40
0.0
  9
$LIMCHECK
 70
     0
  9
$CHAMFERA
 40
0.0
  9
$CHAMFERB
 40
0.0
  9
$CHAMFERC
 40
0.0
  9
$CHAMFERD
 40
0.0
  9
$SKPOLY
 70
     0
  9
$TDCREATE
 40
2459521.508194444
  9
$TDUCREATE
 40
2459521.674861111
  9
$TDUPDATE
 40
2459521.508194444
  9
$TDUUPDATE
 40
2459521.674861111
  9
$TDINDWG
 40
0.0000000000
  9
$TDUSRTIMER
 40
0.0000000000
  9
$USRTIMER
 70
     1
  9
$ANGBASE
 50
0.0
  9
$ANGDIR
 70
     0
  9
$PDMODE
 70
     0
  9
$PDSIZE
 40
0.0
  9
$PLINEWID
 40
0.0
  9
$SPLFRAME
 70
     0
  9
$SPLINETYPE
 70
     6
  9
$SPLINESEGS
 70
     8
  9
$HANDSEED
  5
8F
  9
$SURFTAB1
 70
     6
  9
$SURFTAB2
 70
     6
  9
$SURFTYPE
 70
     6
  9
$SURFU
 70
     6
  9
$SURFV
 70
     6
  9
$UCSBASE
  2

  9
$UCSNAME
  2

  9
$UCSORG
 10
0.0
 20
0.0
 30
0.0
  9
$UCSXDIR
 10
1.0
 20
0.0
 30
0.0
  9
$UCSYDIR
 10
0.0
 20
1.0
 30
0.0
  9
$UCSORTHOREF
  2

  9
$UCSORTHOVIEW
 70
     0
  9
$UCSORGTOP
 10
0.0
 20
0.0
 30
0.0
  9
$UCSORGBOTTOM
 10
0.0
 20
0.0
 30
0.0
  9
$UCSORGLEFT
 10
0.0
 20
0.0
 30
0.0
  9
$UCSORGRIGHT
 10
0.0
 20
0.0
 30
0.0
  9
$UCSORGFRONT
 10
0.0
 20
0.0
 30
0.0
  9
$UCSORGBACK
 10
0.0
 20
0.0
 30
0.0
  9
$PUCSBASE
  2

  9
$PUCSNAME
  2

  9
$PUCSORG
 10
0.0
 20
0.0
 30
0.0
  9
$PUCSXDIR
 10
1.0
 20
0.0
 30
0.0
  9
$PUCSYDIR
 10
0.0
 20
1.0
 30
0.0
  9
$PUCSORTHOREF
  2

  9
$PUCSORTHOVIEW
 70
     0
  9
$PUCSORGTOP
 10
0.0
 20
0.0
 30
0.0
  9
$PUCSORGBOTTOM
 10
0.0
 20
0.0
 30
0.0
  9
$PUCSORGLEFT
 10
0.0
 20
0.0
 30
0.0
  9
$PUCSORGRIGHT
 10
0.0
 20
0.0
 30
0.0
  9
$PUCSORGFRONT
 10
0.0
 20
0.0
 30
0.0
  9
$PUCSORGBACK
 10
0.0
 20
0.0
 30
0.0
  9
$USERI1
 70
     0
  9
$USERI2
 70
     0
  9
$USERI3
 70
     0
  9
$USERI4
 70
     0
  9
$USERI5
 70
     0
  9
$USERR1
 40
0.0
  9
$USERR2
 40
0.0
  9
$USERR3
 40
0.0
  9
$USERR4
 40
0.0
  9
$USERR5
 40
0.0
  9
$WORLDVIEW
 70
     1
  9
$SHADEDGE
 70
     3
  9
$SHADEDIF
 70
    70
  9
$TILEMODE
 70
     1
  9
$MAXACTVP
 70
    64
  9
$PINSBASE
 10
0.0
 20
0.0
 30
0.0
  9
$PLIMCHECK
 70
     0
  9
$PEXTMIN
 10
1.000000000000000E+20
 20
1.000000000000000E+20
 30
1.000000000000000E+20
  9
$PEXTMAX
 10
-1.000000000000000E+20
 20
-1.000000000000000E+20
 30
-1.000000000000000E+20
  9
$PLIMMIN
 10
0.0
 20
0.0
  9
$PLIMMAX
 10
12.0
 20
9.0
  9
$UNITMODE
 70
     0
  9
$VISRETAIN
 70
     1
  9
$PLINEGEN
 70
     0
  9
$PSLTSCALE
 70
     1
  9
$TREEDEPTH
 70
  3020
  9
$CMLSTYLE
  2
Standard
  9
$CMLJUST
 70
     0
  9
$CMLSCALE
 40
1.0
  9
$PROXYGRAPHICS
 70
     1
  9
$MEASUREMENT
 70
     0
  9
$CELWEIGHT
370
    -1
  9
$ENDCAPS
280
     0
  9
$JOINSTYLE
280
     0
  9
$LWDISPLAY
290
     1
  9
$INSUNITS
 70
     1
  9
$HYPERLINKBASE
  1

  9
$STYLESHEET
  1

  9
$XEDIT
290
     1
  9
$CEPSNTYPE
380
     0
  9
$PSTYLEMODE
290
     1
  9
$FINGERPRINTGUID
  2
{EF500C45-7D29-BB4F-87AD-5D3382FA09CD}
  9
$VERSIONGUID
  2
{AB263C61-771C-B949-B2A5-C772A65A5A45}
  9
$EXTNAMES
290
     1
  9
$PSVPSCALE
 40
0.0
  9
$OLESTARTUP
290
     0
  9
$SORTENTS
280
   127
  9
$INDEXCTL
280
     0
  9
$HIDETEXT
280
     1
  9
$XCLIPFRAME
280
     2
  9
$HALOGAP
280
     0
  9
$OBSCOLOR
 70
   257
  9
$OBSLTYPE
280
     0
  9
$INTERSECTIONDISPLAY
280
     0
  9
$INTERSECTIONCOLOR
 70
   257
  9
$DIMASSOC
280
     2
  9
$PROJECTNAME
  1

  9
$CAMERADISPLAY
290
     0
  9
$LENSLENGTH
 40
50.0
  9
$CAMERAHEIGHT
 40
0.0
  9
$STEPSPERSEC
 40
2.0
  9
$STEPSIZE
 40
6.0
  9
$3DDWFPREC
 40
2.0
  9
$PSOLWIDTH
 40
0.25
  9
$PSOLHEIGHT
 40
4.0
  9
$LOFTANG1
 40
1.570796326794896
  9
$LOFTANG2
 40
1.570796326794896
  9
$LOFTMAG1
 40
0.0
  9
$LOFTMAG2
 40
0.0
  9
$LOFTPARAM
 70
     7
  9
$LOFTNORMALS
280
     1
  9
$LATITUDE
 40
37.795
  9
$LONGITUDE
 40
-122.394
  9
$NORTHDIRECTION
 40
0.0
  9
$TIMEZONE
 70
 -8000
  9
$LIGHTGLYPHDISPLAY
280
     1
  9
$TILEMODELIGHTSYNCH
280
     1
  9
$CMATERIAL
347
11
  9
$SOLIDHIST
280
     0
  9
$SHOWHIST
280
     1
  9
$DWFFRAME
280
     2
  9
$DGNFRAME
280
     0
  9
$REALWORLDSCALE
290
     1
  9
$INTERFERECOLOR
 62
     1
  9
$INTERFEREOBJVS
345
33
  9
$INTERFEREVPVS
346
30
  9
$CSHADOW
280
     0
  9
$SHADOWPLANELOCATION
 40
0.0
  0
ENDSEC
  0
SECTION
  2
CLASSES
  0
CLASS
  1
ACDBDICTIONARYWDFLT
  2
AcDbDictionaryWithDefault
  3
ObjectDBX Classes
 90
        0
 91
        1
280
     0
281
     0
  0
CLASS
  1
MATERIAL
  2
AcDbMaterial
  3
ObjectDBX Classes
 90
     1153
 91
        3
280
     0
281
     0
  0
CLASS
  1
VISUALSTYLE
  2
AcDbVisualStyle
  3
ObjectDBX Classes
 90
     4095
 91
       24
280
     0
281
     0
  0
CLASS
  1
SCALE
  2
AcDbScale
  3
ObjectDBX Classes
 90
     1153
 91
       17
280
     0
281
     0
  0
CLASS
  1
TABLESTYLE
  2
AcDbTableStyle
  3
ObjectDBX Classes
 90
     4095
 91
        1
280
     0
281
     0
  0
CLASS
  1
MLEADERSTYLE
  2
AcDbMLeaderStyle
  3
ACDB_MLEADERSTYLE_CLASS
 90
     4095
 91
        1
280
     0
281
     0
  0
CLASS
  1
ACDBSECTIONVIEWSTYLE
  2
AcDbSectionViewStyle
  3
ObjectDBX Classes
 90
     1025
 91
        1
280
     0
281
     0
  0
CLASS
  1
ACDBDETAILVIEWSTYLE
  2
AcDbDetailViewStyle
  3
ObjectDBX Classes
 90
     1025
 91
        1
280
     0
281
     0
  0
CLASS
  1
DICTIONARYVAR
  2
AcDbDictionaryVar
  3
ObjectDBX Classes
 90
        0
 91
        5
280
     0
281
     0
  0
CLASS
  1
CELLSTYLEMAP
  2
AcDbCellStyleMap
  3
ObjectDBX Classes
 90
     1152
 91
        1
280
     0
281
     0
  0
ENDSEC
  0
SECTION
  2
TABLES
  0
TABLE
  2
VPORT
  5
8
330
0
100
AcDbSymbolTable
 70
     1
  0
VPORT
  5
57
330
8
100
AcDbSymbolTableRecord
100
AcDbViewportTableRecord
  2
*Active
 70
     0
 10
0.0
 20
0.0
 11
1.0
 21
1.0
 12
0.0
 22
0.0
 13
0.0
 23
0.0
 14
1.0
 24
1.0
 15
0.0
 25
0.0
 16
0.0
 26
0.0
 36
1.0
 17
0.8705335120524624
 27
0.9265510751785212
 37
0.0
 40
3.06
 41
0.9999999999999998
 42
50.0
 43
0.0
 44
0.0
 50
0.0
 51
0.0
 71
     0
 72
   100
 73
     1
 74
     0
 75
     1
 76
     0
 77
     0
 78
     0
281
     0
 65
     1
110
0.0
120
0.0
130
0.0
111
1.0
121
0.0
131
0.0
112
0.0
122
1.0
132
0.0
 79
     0
146
0.0
 60
     3
 61
     5
292
     1
282
     1
141
0.0
142
0.0
 63
   250
421
  3355443
  0
ENDTAB
  0
TABLE
  2
LTYPE
  5
5
330
0
100
AcDbSymbolTable
 70
     1
  0
LTYPE
  5
5B
330
5
100
AcDbSymbolTableRecord
100
AcDbLinetypeTableRecord
  2
ByBlock
 70
     0
  3

 72
    65
 73
     0
 40
0.0
  0
LTYPE
  5
5C
330
5
100
AcDbSymbolTableRecord
100
AcDbLinetypeTableRecord
  2
ByLayer
 70
     0
  3

 72
    65
 73
     0
 40
0.0
  0
LTYPE
  5
5D
330
5
100
AcDbSymbolTableRecord
100
AcDbLinetypeTableRecord
  2
Continuous
 70
     0
  3
Solid line
 72
    65
 73
     0
 40
0.0
  0
ENDTAB
  0
TABLE
  2
LAYER
  5
2
330
0
100
AcDbSymbolTable
 70
     2
  0
LAYER
  5
54
330
2
100
AcDbSymbolTableRecord
100
AcDbLayerTableRecord
  2
0
 70
     0
 62
     7
  6
Continuous
370
    -3
390
F
347
21
348
0
  0
LAYER
  5
78
330
2
100
AcDbSymbolTableRecord
100
AcDbLayerTableRecord
  2
Layer 4 copy
 70
     0
 62
     7
  6
Continuous
370
     0
390
F
347
21
348
0
  0
ENDTAB
  0
TABLE
  2
STYLE
  5
3
330
0
100
AcDbSymbolTable
 70
     2
  0
STYLE
  5
55
330
3
100
AcDbSymbolTableRecord
100
AcDbTextStyleTableRecord
  2
Standard
 70
     0
 40
0.0
 41
1.0
 50
0.0
 71
     0
 42
0.2
  3
txt
  4

  0
STYLE
  5
5A
330
3
100
AcDbSymbolTableRecord
100
AcDbTextStyleTableRecord
  2
Annotative
 70
     0
 40
0.0
 41
1.0
 50
0.0
 71
     0
 42
0.2
  3
txt
  4

1001
AcadAnnotative
1000
AnnotativeData
1002
{
1070
     1
1070
     1
1002
}
  0
ENDTAB
  0
TABLE
  2
VIEW
  5
6
330
0
100
AcDbSymbolTable
 70
     0
  0
ENDTAB
  0
TABLE
  2
UCS
  5
7
330
0
100
AcDbSymbolTable
 70
     0
  0
ENDTAB
  0
TABLE
  2
APPID
  5
9
330
0
100
AcDbSymbolTable
 70
     2
  0
APPID
  5
56
330
9
100
AcDbSymbolTableRecord
100
AcDbRegAppTableRecord
  2
ACAD
 70
     0
  0
APPID
  5
5E
330
9
100
AcDbSymbolTableRecord
100
AcDbRegAppTableRecord
  2
AcadAnnotative
 70
     0
  0
ENDTAB
  0
TABLE
  2
DIMSTYLE
  5
A
330
0
100
AcDbSymbolTable
 70
     2
100
AcDbDimStyleTable
 71
     0
  0
DIMSTYLE
105
58
330
A
100
AcDbSymbolTableRecord
100
AcDbDimStyleTableRecord
  2
Standard
 70
     0
340
55
  0
DIMSTYLE
105
59
330
A
100
AcDbSymbolTableRecord
100
AcDbDimStyleTableRecord
  2
Annotative
 70
     0
340
55
1001
AcadAnnotative
1000
AnnotativeData
1002
{
1070
     1
1070
     1
1002
}
  0
ENDTAB
  0
TABLE
  2
BLOCK_RECORD
  5
1
330
0
100
AcDbSymbolTable
 70
     1
  0
BLOCK_RECORD
  5
70
330
1
100
AcDbSymbolTableRecord
100
AcDbBlockTableRecord
  2
*Model_Space
340
73
 70
     0
280
     1
281
     0
  0
BLOCK_RECORD
  5
6C
330
1
100
AcDbSymbolTableRecord
100
AcDbBlockTableRecord
  2
*Paper_Space
340
6F
 70
     0
280
     1
281
     0
  0
BLOCK_RECORD
  5
74
330
1
100
AcDbSymbolTableRecord
100
AcDbBlockTableRecord
  2
*Paper_Space0
340
77
 70
     0
280
     1
281
     0
  0
ENDTAB
  0
ENDSEC
  0
SECTION
  2
BLOCKS
  0
BLOCK
  5
71
330
70
100
AcDbEntity
  8
0
100
AcDbBlockBegin
  2
*Model_Space
 70
     0
 10
0.0
 20
0.0
 30
0.0
  3
*Model_Space
  1

  0
ENDBLK
  5
72
330
70
100
AcDbEntity
  8
0
100
AcDbBlockEnd
  0
BLOCK
  5
6D
330
6C
100
AcDbEntity
 67
     1
  8
0
100
AcDbBlockBegin
  2
*Paper_Space
 70
     0
 10
0.0
 20
0.0
 30
0.0
  3
*Paper_Space
  1

  0
ENDBLK
  5
6E
330
6C
100
AcDbEntity
 67
     1
  8
0
100
AcDbBlockEnd
  0
BLOCK
  5
75
330
74
100
AcDbEntity
 67
     1
  8
0
100
AcDbBlockBegin
  2
*Paper_Space0
 70
     0
 10
0.0
 20
0.0
 30
0.0
  3
*Paper_Space0
  1

  0
ENDBLK
  5
76
330
74
100
AcDbEntity
 67
     1
  8
0
100
AcDbBlockEnd
  0
ENDSEC
  0
SECTION
  2
ENTITIES
  0
SPLINE
  5
79
330
70
100
AcDbEntity
  8
Layer 4 copy
100
AcDbSpline
210
0.0
220
0.0
230
1.0
 70
     9
 71
     3
 72
   164
 73
   160
 74
     0
 42
0.0000000001
 43
0.0000000001
 40
0.0
 40
0.0
 40
0.0
 40
0.0
 40
1.0
 40
1.0
 40
1.0
 40
2.0
 40
2.0
 40
2.0
 40
3.0
 40
3.0
 40
3.0
 40
4.0
 40
4.0
 40
4.0
 40
5.0
 40
5.0
 40
5.0
 40
6.0
 40
6.0
 40
6.0
 40
7.0
 40
7.0
 40
7.0
 40
8.0
 40
8.0
 40
8.0
 40
9.0
 40
9.0
 40
9.0
 40
10.0
 40
10.0
 40
10.0
 40
11.0
 40
11.0
 40
11.0
 40
12.0
 40
12.0
 40
12.0
 40
13.0
 40
13.0
 40
13.0
 40
14.0
 40
14.0
 40
14.0
 40
15.0
 40
15.0
 40
15.0
 40
16.0
 40
16.0
 40
16.0
 40
17.0
 40
17.0
 40
17.0
 40
18.0
 40
18.0
 40
18.0
 40
19.0
 40
19.0
 40
19.0
 40
20.0
 40
20.0
 40
20.0
 40
21.0
 40
21.0
 40
21.0
 40
22.0
 40
22.0
 40
22.0
 40
23.0
 40
23.0
 40
23.0
 40
24.0
 40
24.0
 40
24.0
 40
25.0
 40
25.0
 40
25.0
 40
26.0
 40
26.0
 40
26.0
 40
27.0
 40
27.0
 40
27.0
 40
28.0
 40
28.0
 40
28.0
 40
29.0
 40
29.0
 40
29.0
 40
30.0
 40
30.0
 40
30.0
 40
31.0
 40
31.0
 40
31.0
 40
32.0
 40
32.0
 40
32.0
 40
33.0
 40
33.0
 40
33.0
 40
34.0
 40
34.0
 40
34.0
 40
35.0
 40
35.0
 40
35.0
 40
36.0
 40
36.0
 40
36.0
 40
37.0
 40
37.0
 40
37.0
 40
38.0
 40
38.0
 40
38.0
 40
39.0
 40
39.0
 40
39.0
 40
40.0
 40
40.0
 40
40.0
 40
41.0
 40
41.0
 40
41.0
 40
42.0
 40
42.0
 40
42.0
 40
43.0
 40
43.0
 40
43.0
 40
44.0
 40
44.0
 40
44.0
 40
45.0
 40
45.0
 40
45.0
 40
46.0
 40
46.0
 40
46.0
 40
47.0
 40
47.0
 40
47.0
 40
48.0
 40
48.0
 40
48.0
 40
49.0
 40
49.0
 40
49.0
 40
50.0
 40
50.0
 40
50.0
 40
51.0
 40
51.0
 40
51.0
 40
52.0
 40
52.0
 40
52.0
 40
53.0
 40
53.0
 40
53.0
 40
53.0
 10
2.09923451909708
 20
-0.0282618467233028
 30
0.0
 10
2.026050899331822
 20
-0.0140968485689983
 30
0.0
 10
1.925932466402299
 20
0.0288713830287988
 30
0.0
 10
1.735534337036875
 20
0.1033216914126771
 30
0.0
 10
1.545137152256529
 20
0.1777719997965808
 30
0.0
 10
1.297823047711921
 20
0.3567727653496857
 30
0.0
 10
1.231367707611424
 20
0.4030385435303288
 30
0.0
 10
1.164912367510926
 20
0.4493033771258929
 30
0.0
 10
1.073224325643599
 20
0.5228799442926276
 30
0.0
 10
1.043059000486411
 20
0.5461885262115074
 30
0.0
 10
1.012893675329223
 20
0.5694971081303618
 30
0.0
 10
1.011542918636728
 20
0.5748774648579406
 30
0.0
 10
1.011542918636728
 20
0.5748774648579406
 30
0.0
 10
0.9666486780207479
 20
0.6157449391941251
 30
0.0
 10
0.9923404481460238
 20
0.6904899581291172
 30
0.0
 10
1.052872295086621
 20
0.6951203142875784
 30
0.0
 10
1.052872295086621
 20
0.6951203142875784
 30
0.0
 10
1.130581422064324
 20
0.7010636437345409
 30
0.0
 10
1.130581422064324
 20
0.7010636437345409
 30
0.0
 10
1.130581422064324
 20
0.7010636437345409
 30
0.0
 10
1.635608568515534
 20
0.7256058537935435
 30
0.0
 10
1.725316760013988
 20
0.7256058537935435
 30
0.0
 10
1.81502589609757
 20
0.7256058537935435
 30
0.0
 10
1.951949173801848
 20
0.7256058537935435
 30
0.0
 10
1.99326249230507
 20
0.7256058537935435
 30
0.0
 10
2.034575810808291
 20
0.7256058537935435
 30
0.0
 10
2.092414645629812
 20
0.742131370111843
 30
0.0
 10
2.061724131157208
 20
0.7940674926456824
 30
0.0
 10
2.031034561269709
 20
0.8460045597646006
 30
0.0
 10
1.987275711943513
 20
0.8631468901529993
 30
0.0
 10
1.96493344058159
 20
0.8749239771753611
 30
0.0
 10
1.942592113804746
 20
0.8867001196126693
 30
0.0
 10
1.874044517708524
 20
0.9056910030410689
 30
0.0
 10
1.801451263630572
 20
0.9032530288988784
 30
0.0
 10
1.72885800955257
 20
0.9008141101715839
 30
0.0
 10
1.291301632183982
 20
0.8421827684514685
 30
0.0
 10
0.9533309727008447
 20
0.8063282072390999
 30
0.0
 10
0.9181092835052469
 20
0.8025914285848708
 30
0.0
 10
0.8933573755541095
 20
0.8194484942731731
 30
0.0
 10
0.8855258204929567
 20
0.8396890637884046
 30
0.0
 10
0.8776952100169081
 20
0.8599286887185067
 30
0.0
 10
0.8879666283904345
 20
0.890949807975984
 30
0.0
 10
0.8879666283904345
 20
0.890949807975984
 30
0.0
 10
0.8879666283904345
 20
0.890949807975984
 30
0.0
 10
0.9011360338497018
 20
0.9289665244814386
 30
0.0
 10
0.8887808607463638
 20
0.9491268042631872
 30
0.0
 10
0.8764256876429751
 20
0.9692880286300148
 30
0.0
 10
0.7882741723886966
 20
0.9777335640059668
 30
0.0
 10
0.7353859080744011
 20
0.9844996270747337
 30
0.0
 10
0.682497643760131
 20
0.9912666347285796
 30
0.0
 10
0.6667712464361304
 20
0.9853629778558063
 30
0.0
 10
0.6646600987384091
 20
0.9560421117776943
 30
0.0
 10
0.6625508402109088
 20
0.9267221902846737
 30
0.0
 10
0.6924157873064207
 20
0.9129180236384526
 30
0.0
 10
0.6932328534176122
 20
0.8769992306393103
 30
0.0
 10
0.6933263673424664
 20
0.8729431822214337
 30
0.0
 10
0.6933981558100488
 20
0.8698987844452656
 30
0.0
 10
0.6934567200862223
 20
0.8674948153666516
 30
0.0
 10
0.6934567200862223
 20
0.8674948153666516
 30
0.0
 10
0.692959868323808
 20
0.8406393163986143
 30
0.0
 10
0.692959868323808
 20
0.8406393163986143
 30
0.0
 10
0.6921909760527064
 20
0.7991125216629169
 30
0.0
 10
0.6598342134643265
 20
0.7650488937994547
 30
0.0
 10
0.6184018772385622
 20
0.7621480729584517
 30
0.0
 10
0.6184018772385622
 20
0.7621480729584517
 30
0.0
 10
-0.0610381849367817
 20
0.7135708950389573
 30
0.0
 10
-0.1879696414570036
 20
0.7086883346588718
 30
0.0
 10
-0.2506560870099166
 20
0.7062768088994997
 30
0.0
 10
-0.281510014704736
 20
0.7052802716193583
 30
0.0
 10
-0.3028651946375476
 20
0.6996373202340843
 30
0.0
 10
-0.3242203745703465
 20
0.6939943688488104
 30
0.0
 10
-0.3508406718485604
 20
0.6796376199192764
 30
0.0
 10
-0.357752201022663
 20
0.6568485598052121
 30
0.0
 10
-0.3646646747818825
 20
0.634060444276252
 30
0.0
 10
-0.3624741819357951
 20
0.6220283192769785
 30
0.0
 10
-0.3412276292894679
 20
0.6007808220455343
 30
0.0
 10
-0.3412276292894679
 20
0.6007808220455343
 30
0.0
 10
-0.2951923298731268
 20
0.5706816178453159
 30
0.0
 10
-0.2620761208646374
 20
0.5590433848325726
 30
0.0
 10
-0.2289589672710437
 20
0.5474051518198545
 30
0.0
 10
-0.1966314868207569
 20
0.5293682993420943
 30
0.0
 10
-0.0906924895550674
 20
0.5273024917291878
 30
0.0
 10
0.0152465077106222
 20
0.5252366841162308
 30
0.0
 10
0.2842303390262057
 20
0.5773371644574278
 30
0.0
 10
0.4053167029498278
 20
0.60698391239493
 30
0.0
 10
0.4053167029498278
 20
0.60698391239493
 30
0.0
 10
0.4906269062243559
 20
0.6305768144287514
 30
0.0
 10
0.5109751584409297
 20
0.5890793018311343
 30
0.0
 10
0.5313243552425952
 20
0.5475827338185708
 30
0.0
 10
0.5090916557522229
 20
0.515630253652868
 30
0.0
 10
0.4772015182030853
 20
0.4804548491271261
 30
0.0
 10
0.4453113806539224
 20
0.4452803891865137
 30
0.0
 10
0.3898689582302066
 20
0.3666181758432887
 30
0.0
 10
0.283142176991406
 20
0.2619864843555256
 30
0.0
 10
0.176415395752618
 20
0.157353848282633
 30
0.0
 10
0.082097628967871
 20
0.0865184670750902
 30
0.0
 10
0.0243967035709021
 20
0.0374142106699967
 30
0.0
 10
-0.1184311755912657
 20
-0.0841321661971506
 30
0.0
 10
-0.4166092985816097
 20
-0.206684526195406
 30
0.0
 10
-0.374705614391107
 20
-0.2603870228655928
 30
0.0
 10
-0.3328019302006169
 20
-0.3140885749506499
 30
0.0
 10
-0.1573858651006756
 20
-0.2097034201738855
 30
0.0
 10
-0.04395064048419
 20
-0.1481004137302888
 30
0.0
 10
0.0586246892416714
 20
-0.0923953966488524
 30
0.0
 10
0.1428675113535923
 20
-0.0211028362530973
 30
0.0
 10
0.2101068570867963
 20
0.0268225779476678
 30
0.0
 10
0.3210625458166936
 20
0.1059079654155034
 30
0.0
 10
0.4360922300813855
 20
0.2277207152807629
 30
0.0
 10
0.4912333298583209
 20
0.2891612530872357
 30
0.0
 10
0.5463734850501523
 20
0.3506027354787875
 30
0.0
 10
0.6449777790170907
 20
0.4730049064462239
 30
0.0
 10
0.6449777790170907
 20
0.4730049064462239
 30
0.0
 10
0.6972086121020185
 20
0.5208103583393293
 30
0.0
 10
0.753830821315205
 20
0.4776692676682867
 30
0.0
 10
0.7569781788672192
 20
0.4477665371687686
 30
0.0
 10
0.7675150256537665
 20
0.3476660204039995
 30
0.0
 10
0.7557624978439764
 20
0.2598451099346322
 30
0.0
 10
0.755441338910095
 20
0.2274864581760438
 30
0.0
 10
0.7551192353911221
 20
0.195128751002585
 30
0.0
 10
0.7426157624270975
 20
0.0341157195020211
 30
0.0
 10
0.7412763407558032
 20
0.0158058819304693
 30
0.0
 10
0.7399369190845088
 20
-0.002503011055953
 30
0.0
 10
0.7281938371257107
 20
-0.0655417868510237
 30
0.0
 10
0.7178657436461814
 20
-0.0988875300387362
 30
0.0
 10
0.7075376501666521
 20
-0.1322323286413444
 30
0.0
 10
0.6960288253125606
 20
-0.1789562305953293
 30
0.0
 10
0.6972086121020185
 20
-0.2266625010529424
 30
0.0
 10
0.7025209587024316
 20
-0.2871575091746763
 30
0.0
 10
0.7399973725308781
 20
-0.382374520974281
 30
0.0
 10
0.7562281782981018
 20
-0.4138509302497874
 30
0.0
 10
0.7724580394802084
 20
-0.4453273395252685
 30
0.0
 10
0.800294962366782
 20
-0.4500493204384131
 30
0.0
 10
0.8286240140902615
 20
-0.4469010183013072
 30
0.0
 10
0.8569530658137409
 20
-0.443753660749255
 30
0.0
 10
0.8673973432605382
 20
-0.4068581667570976
 30
0.0
 10
0.8673973432605382
 20
-0.4068581667570976
 30
0.0
 10
0.8673973432605382
 20
-0.4068581667570976
 30
0.0
 10
0.89944711569155
 20
-0.1604631435144357
 30
0.0
 10
0.8970856529424256
 20
0.0142322031544811
 30
0.0
 10
0.8962090779699691
 20
0.0791393682766536
 30
0.0
 10
0.8833674435402624
 20
0.3309147482468941
 30
0.0
 10
0.877019831670648
 20
0.4253968728389737
 30
0.0
 10
0.8734190732707752
 20
0.4789926313928845
 30
0.0
 10
0.9404421090161779
 20
0.5142077084927779
 30
0.0
 10
0.9860079496380016
 20
0.481661084299377
 30
0.0
 10
0.9987947981319141
 20
0.4741856378207861
 30
0.0
 10
1.055553972184523
 20
0.4137661965070139
 30
0.0
 10
1.098434357368053
 20
0.3693895885256653
 30
0.0
 10
1.133197922790335
 20
0.3334150650056371
 30
0.0
 10
1.33643201907484
 20
0.1204082912802025
 30
0.0
 10
1.409661923510005
 20
0.0325325948750409
 30
0.0
 10
1.48289182794517
 20
-0.0553431015301461
 30
0.0
 10
1.624984819899787
 20
-0.1258393766869277
 30
0.0
 10
1.71705447414739
 20
-0.1274130554629159
 30
0.0
 10
1.809124128394968
 20
-0.1289867342389546
 30
0.0
 10
1.977964905664142
 20
-0.1293711803745181
 30
0.0
 10
2.103168716037114
 20
-0.0967234855754416
 30
0.0
 10
2.175533380520972
 20
-0.0778535090398186
 30
0.0
 10
2.172417194277259
 20
-0.0424259002924777
 30
0.0
 10
2.09923451909708
 20
-0.0282618467233028
 30
0.0
  0
HATCH
  5
7A
330
70
100
AcDbEntity
  8
Layer 4 copy
 62
    18
420
        0
440
 33554687
100
AcDbHatch
 10
0.0
 20
0.0
 30
0.0
210
0.0
220
0.0
230
1.0
  2
SOLID
 70
     1
 71
     1
 91
        1
 92
        1
 93
        1
 72
     4
 94
        3
 73
     0
 74
     0
 95
      164
 96
      160
 40
0.0
 40
0.0
 40
0.0
 40
0.0
 40
1.0
 40
1.0
 40
1.0
 40
2.0
 40
2.0
 40
2.0
 40
3.0
 40
3.0
 40
3.0
 40
4.0
 40
4.0
 40
4.0
 40
5.0
 40
5.0
 40
5.0
 40
6.0
 40
6.0
 40
6.0
 40
7.0
 40
7.0
 40
7.0
 40
8.0
 40
8.0
 40
8.0
 40
9.0
 40
9.0
 40
9.0
 40
10.0
 40
10.0
 40
10.0
 40
11.0
 40
11.0
 40
11.0
 40
12.0
 40
12.0
 40
12.0
 40
13.0
 40
13.0
 40
13.0
 40
14.0
 40
14.0
 40
14.0
 40
15.0
 40
15.0
 40
15.0
 40
16.0
 40
16.0
 40
16.0
 40
17.0
 40
17.0
 40
17.0
 40
18.0
 40
18.0
 40
18.0
 40
19.0
 40
19.0
 40
19.0
 40
20.0
 40
20.0
 40
20.0
 40
21.0
 40
21.0
 40
21.0
 40
22.0
 40
22.0
 40
22.0
 40
23.0
 40
23.0
 40
23.0
 40
24.0
 40
24.0
 40
24.0
 40
25.0
 40
25.0
 40
25.0
 40
26.0
 40
26.0
 40
26.0
 40
27.0
 40
27.0
 40
27.0
 40
28.0
 40
28.0
 40
28.0
 40
29.0
 40
29.0
 40
29.0
 40
30.0
 40
30.0
 40
30.0
 40
31.0
 40
31.0
 40
31.0
 40
32.0
 40
32.0
 40
32.0
 40
33.0
 40
33.0
 40
33.0
 40
34.0
 40
34.0
 40
34.0
 40
35.0
 40
35.0
 40
35.0
 40
36.0
 40
36.0
 40
36.0
 40
37.0
 40
37.0
 40
37.0
 40
38.0
 40
38.0
 40
38.0
 40
39.0
 40
39.0
 40
39.0
 40
40.0
 40
40.0
 40
40.0
 40
41.0
 40
41.0
 40
41.0
 40
42.0
 40
42.0
 40
42.0
 40
43.0
 40
43.0
 40
43.0
 40
44.0
 40
44.0
 40
44.0
 40
45.0
 40
45.0
 40
45.0
 40
46.0
 40
46.0
 40
46.0
 40
47.0
 40
47.0
 40
47.0
 40
48.0
 40
48.0
 40
48.0
 40
49.0
 40
49.0
 40
49.0
 40
50.0
 40
50.0
 40
50.0
 40
51.0
 40
51.0
 40
51.0
 40
52.0
 40
52.0
 40
52.0
 40
53.0
 40
53.0
 40
53.0
 40
53.0
 10
2.09923451909708
 20
-0.0282618467233028
 10
2.026050899331822
 20
-0.0140968485689983
 10
1.925932466402299
 20
0.0288713830287988
 10
1.735534337036875
 20
0.1033216914126771
 10
1.545137152256529
 20
0.1777719997965808
 10
1.297823047711921
 20
0.3567727653496857
 10
1.231367707611424
 20
0.4030385435303288
 10
1.164912367510926
 20
0.4493033771258929
 10
1.073224325643599
 20
0.5228799442926276
 10
1.043059000486411
 20
0.5461885262115074
 10
1.012893675329223
 20
0.5694971081303618
 10
1.011542918636728
 20
0.5748774648579406
 10
1.011542918636728
 20
0.5748774648579406
 10
0.9666486780207479
 20
0.6157449391941251
 10
0.9923404481460238
 20
0.6904899581291172
 10
1.052872295086621
 20
0.6951203142875784
 10
1.052872295086621
 20
0.6951203142875784
 10
1.130581422064324
 20
0.7010636437345409
 10
1.130581422064324
 20
0.7010636437345409
 10
1.130581422064324
 20
0.7010636437345409
 10
1.635608568515534
 20
0.7256058537935435
 10
1.725316760013988
 20
0.7256058537935435
 10
1.81502589609757
 20
0.7256058537935435
 10
1.951949173801848
 20
0.7256058537935435
 10
1.99326249230507
 20
0.7256058537935435
 10
2.034575810808291
 20
0.7256058537935435
 10
2.092414645629812
 20
0.742131370111843
 10
2.061724131157208
 20
0.7940674926456824
 10
2.031034561269709
 20
0.8460045597646006
 10
1.987275711943513
 20
0.8631468901529993
 10
1.96493344058159
 20
0.8749239771753611
 10
1.942592113804746
 20
0.8867001196126693
 10
1.874044517708524
 20
0.9056910030410689
 10
1.801451263630572
 20
0.9032530288988784
 10
1.72885800955257
 20
0.9008141101715839
 10
1.291301632183982
 20
0.8421827684514685
 10
0.9533309727008447
 20
0.8063282072390999
 10
0.9181092835052469
 20
0.8025914285848708
 10
0.8933573755541095
 20
0.8194484942731731
 10
0.8855258204929567
 20
0.8396890637884046
 10
0.8776952100169081
 20
0.8599286887185067
 10
0.8879666283904345
 20
0.890949807975984
 10
0.8879666283904345
 20
0.890949807975984
 10
0.8879666283904345
 20
0.890949807975984
 10
0.9011360338497018
 20
0.9289665244814386
 10
0.8887808607463638
 20
0.9491268042631872
 10
0.8764256876429751
 20
0.9692880286300148
 10
0.7882741723886966
 20
0.9777335640059668
 10
0.7353859080744011
 20
0.9844996270747337
 10
0.682497643760131
 20
0.9912666347285796
 10
0.6667712464361304
 20
0.9853629778558063
 10
0.6646600987384091
 20
0.9560421117776943
 10
0.6625508402109088
 20
0.9267221902846737
 10
0.6924157873064207
 20
0.9129180236384526
 10
0.6932328534176122
 20
0.8769992306393103
 10
0.6933263673424664
 20
0.8729431822214337
 10
0.6933981558100488
 20
0.8698987844452656
 10
0.6934567200862223
 20
0.8674948153666516
 10
0.6934567200862223
 20
0.8674948153666516
 10
0.692959868323808
 20
0.8406393163986143
 10
0.692959868323808
 20
0.8406393163986143
 10
0.6921909760527064
 20
0.7991125216629169
 10
0.6598342134643265
 20
0.7650488937994547
 10
0.6184018772385622
 20
0.7621480729584517
 10
0.6184018772385622
 20
0.7621480729584517
 10
-0.0610381849367817
 20
0.7135708950389573
 10
-0.1879696414570036
 20
0.7086883346588718
 10
-0.2506560870099166
 20
0.7062768088994997
 10
-0.281510014704736
 20
0.7052802716193583
 10
-0.3028651946375476
 20
0.6996373202340843
 10
-0.3242203745703465
 20
0.6939943688488104
 10
-0.3508406718485604
 20
0.6796376199192764
 10
-0.357752201022663
 20
0.6568485598052121
 10
-0.3646646747818825
 20
0.634060444276252
 10
-0.3624741819357951
 20
0.6220283192769785
 10
-0.3412276292894679
 20
0.6007808220455343
 10
-0.3412276292894679
 20
0.6007808220455343
 10
-0.2951923298731268
 20
0.5706816178453159
 10
-0.2620761208646374
 20
0.5590433848325726
 10
-0.2289589672710437
 20
0.5474051518198545
 10
-0.1966314868207569
 20
0.5293682993420943
 10
-0.0906924895550674
 20
0.5273024917291878
 10
0.0152465077106222
 20
0.5252366841162308
 10
0.2842303390262057
 20
0.5773371644574278
 10
0.4053167029498278
 20
0.60698391239493
 10
0.4053167029498278
 20
0.60698391239493
 10
0.4906269062243559
 20
0.6305768144287514
 10
0.5109751584409297
 20
0.5890793018311343
 10
0.5313243552425952
 20
0.5475827338185708
 10
0.5090916557522229
 20
0.515630253652868
 10
0.4772015182030853
 20
0.4804548491271261
 10
0.4453113806539224
 20
0.4452803891865137
 10
0.3898689582302066
 20
0.3666181758432887
 10
0.283142176991406
 20
0.2619864843555256
 10
0.176415395752618
 20
0.157353848282633
 10
0.082097628967871
 20
0.0865184670750902
 10
0.0243967035709021
 20
0.0374142106699967
 10
-0.1184311755912657
 20
-0.0841321661971506
 10
-0.4166092985816097
 20
-0.206684526195406
 10
-0.374705614391107
 20
-0.2603870228655928
 10
-0.3328019302006169
 20
-0.3140885749506499
 10
-0.1573858651006756
 20
-0.2097034201738855
 10
-0.04395064048419
 20
-0.1481004137302888
 10
0.0586246892416714
 20
-0.0923953966488524
 10
0.1428675113535923
 20
-0.0211028362530973
 10
0.2101068570867963
 20
0.0268225779476678
 10
0.3210625458166936
 20
0.1059079654155034
 10
0.4360922300813855
 20
0.2277207152807629
 10
0.4912333298583209
 20
0.2891612530872357
 10
0.5463734850501523
 20
0.3506027354787875
 10
0.6449777790170907
 20
0.4730049064462239
 10
0.6449777790170907
 20
0.4730049064462239
 10
0.6972086121020185
 20
0.5208103583393293
 10
0.753830821315205
 20
0.4776692676682867
 10
0.7569781788672192
 20
0.4477665371687686
 10
0.7675150256537665
 20
0.3476660204039995
 10
0.7557624978439764
 20
0.2598451099346322
 10
0.755441338910095
 20
0.2274864581760438
 10
0.7551192353911221
 20
0.195128751002585
 10
0.7426157624270975
 20
0.0341157195020211
 10
0.7412763407558032
 20
0.0158058819304693
 10
0.7399369190845088
 20
-0.002503011055953
 10
0.7281938371257107
 20
-0.0655417868510237
 10
0.7178657436461814
 20
-0.0988875300387362
 10
0.7075376501666521
 20
-0.1322323286413444
 10
0.6960288253125606
 20
-0.1789562305953293
 10
0.6972086121020185
 20
-0.2266625010529424
 10
0.7025209587024316
 20
-0.2871575091746763
 10
0.7399973725308781
 20
-0.382374520974281
 10
0.7562281782981018
 20
-0.4138509302497874
 10
0.7724580394802084
 20
-0.4453273395252685
 10
0.800294962366782
 20
-0.4500493204384131
 10
0.8286240140902615
 20
-0.4469010183013072
 10
0.8569530658137409
 20
-0.443753660749255
 10
0.8673973432605382
 20
-0.4068581667570976
 10
0.8673973432605382
 20
-0.4068581667570976
 10
0.8673973432605382
 20
-0.4068581667570976
 10
0.89944711569155
 20
-0.1604631435144357
 10
0.8970856529424256
 20
0.0142322031544811
 10
0.8962090779699691
 20
0.0791393682766536
 10
0.8833674435402624
 20
0.3309147482468941
 10
0.877019831670648
 20
0.4253968728389737
 10
0.8734190732707752
 20
0.4789926313928845
 10
0.9404421090161779
 20
0.5142077084927779
 10
0.9860079496380016
 20
0.481661084299377
 10
0.9987947981319141
 20
0.4741856378207861
 10
1.055553972184523
 20
0.4137661965070139
 10
1.098434357368053
 20
0.3693895885256653
 10
1.133197922790335
 20
0.3334150650056371
 10
1.33643201907484
 20
0.1204082912802025
 10
1.409661923510005
 20
0.0325325948750409
 10
1.48289182794517
 20
-0.0553431015301461
 10
1.624984819899787
 20
-0.1258393766869277
 10
1.71705447414739
 20
-0.1274130554629159
 10
1.809124128394968
 20
-0.1289867342389546
 10
1.977964905664142
 20
-0.1293711803745181
 10
2.103168716037114
 20
-0.0967234855754416
 10
2.175533380520972
 20
-0.0778535090398186
 10
2.172417194277259
 20
-0.0424259002924777
 10
2.09923451909708
 20
-0.0282618467233028
 97
        0
 97
        1
330
79
 75
     2
 76
     1
 98
        1
 10
0.0
 20
0.0
450
        0
451
        0
460
0.0
461
0.0
452
        0
462
0.0
453
        0
470

  0
SPLINE
  5
7B
330
70
100
AcDbEntity
  8
Layer 4 copy
100
AcDbSpline
210
0.0
220
0.0
230
1.0
 70
     9
 71
     3
 72
    35
 73
    31
 74
     0
 42
0.0000000001
 43
0.0000000001
 40
0.0
 40
0.0
 40
0.0
 40
0.0
 40
1.0
 40
1.0
 40
1.0
 40
2.0
 40
2.0
 40
2.0
 40
3.0
 40
3.0
 40
3.0
 40
4.0
 40
4.0
 40
4.0
 40
5.0
 40
5.0
 40
5.0
 40
6.0
 40
6.0
 40
6.0
 40
7.0
 40
7.0
 40
7.0
 40
8.0
 40
8.0
 40
8.0
 40
9.0
 40
9.0
 40
9.0
 40
10.0
 40
10.0
 40
10.0
 40
10.0
 10
0.5555434282335404
 20
1.443888538304526
 30
0.0
 10
0.5467852351896201
 20
1.443888538304526
 30
0.0
 10
0.523510658334342
 20
1.443896094985322
 30
0.0
 10
0.5193469272151106
 20
1.49809260966261
 30
0.0
 10
0.5155685868165216
 20
1.547173251440211
 30
0.0
 10
0.5283922741293105
 20
1.58936220033081
 30
0.0
 10
0.5585509871908067
 20
1.627070037508676
 30
0.0
 10
0.5920270831222626
 20
1.668911379082588
 30
0.0
 10
0.6135238431403675
 20
1.715530859905318
 30
0.0
 10
0.6342744886093846
 20
1.781923857389225
 30
0.0
 10
0.634437107562058
 20
1.782444337906086
 30
0.0
 10
0.6345989639346373
 20
1.782957247616018
 30
0.0
 10
0.6347600385851516
 20
1.783462694567661
 30
0.0
 10
0.6395948938046053
 20
1.798634311110971
 30
0.0
 10
0.6608142891386958
 20
1.798899264437548
 30
0.0
 10
0.6665069944038653
 20
1.784028256391858
 30
0.0
 10
0.668144328266294
 20
1.779751062350138
 30
0.0
 10
0.6698748308127102
 20
1.774926302452728
 30
0.0
 10
0.6716876152361616
 20
1.769485560797091
 30
0.0
 10
0.6946750382211474
 20
1.700538405203739
 30
0.0
 10
0.690722894164234
 20
1.628523237206725
 30
0.0
 10
0.6599520899581723
 20
1.555450133898122
 30
0.0
 10
0.6297858202158801
 20
1.483820356621751
 30
0.0
 10
0.6027500131734516
 20
1.452208443862206
 30
0.0
 10
0.567755024401764
 20
1.445210957444032
 30
0.0
 10
0.5633645928586095
 20
1.444334382471551
 30
0.0
 10
0.5592613151857475
 20
1.443888538304526
 30
0.0
 10
0.5555434282335404
 20
1.443888538304526
 30
0.0
 10
0.5555434282335404
 20
1.443888538304526
 30
0.0
 10
0.5555434282335404
 20
1.443888538304526
 30
0.0
 10
0.5555434282335404
 20
1.443888538304526
 30
0.0
  0
HATCH
  5
7C
330
70
100
AcDbEntity
  8
Layer 4 copy
 62
    18
420
        0
440
 33554687
100
AcDbHatch
 10
0.0
 20
0.0
 30
0.0
210
0.0
220
0.0
230
1.0
  2
SOLID
 70
     1
 71
     1
 91
        1
 92
        1
 93
        1
 72
     4
 94
        3
 73
     0
 74
     0
 95
       35
 96
       31
 40
0.0
 40
0.0
 40
0.0
 40
0.0
 40
1.0
 40
1.0
 40
1.0
 40
2.0
 40
2.0
 40
2.0
 40
3.0
 40
3.0
 40
3.0
 40
4.0
 40
4.0
 40
4.0
 40
5.0
 40
5.0
 40
5.0
 40
6.0
 40
6.0
 40
6.0
 40
7.0
 40
7.0
 40
7.0
 40
8.0
 40
8.0
 40
8.0
 40
9.0
 40
9.0
 40
9.0
 40
10.0
 40
10.0
 40
10.0
 40
10.0
 10
0.5555434282335404
 20
1.443888538304526
 10
0.5467852351896201
 20
1.443888538304526
 10
0.523510658334342
 20
1.443896094985322
 10
0.5193469272151106
 20
1.49809260966261
 10
0.5155685868165216
 20
1.547173251440211
 10
0.5283922741293105
 20
1.58936220033081
 10
0.5585509871908067
 20
1.627070037508676
 10
0.5920270831222626
 20
1.668911379082588
 10
0.6135238431403675
 20
1.715530859905318
 10
0.6342744886093846
 20
1.781923857389225
 10
0.634437107562058
 20
1.782444337906086
 10
0.6345989639346373
 20
1.782957247616018
 10
0.6347600385851516
 20
1.783462694567661
 10
0.6395948938046053
 20
1.798634311110971
 10
0.6608142891386958
 20
1.798899264437548
 10
0.6665069944038653
 20
1.784028256391858
 10
0.668144328266294
 20
1.779751062350138
 10
0.6698748308127102
 20
1.774926302452728
 10
0.6716876152361616
 20
1.769485560797091
 10
0.6946750382211474
 20
1.700538405203739
 10
0.690722894164234
 20
1.628523237206725
 10
0.6599520899581723
 20
1.555450133898122
 10
0.6297858202158801
 20
1.483820356621751
 10
0.6027500131734516
 20
1.452208443862206
 10
0.567755024401764
 20
1.445210957444032
 10
0.5633645928586095
 20
1.444334382471551
 10
0.5592613151857475
 20
1.443888538304526
 10
0.5555434282335404
 20
1.443888538304526
 10
0.5555434282335404
 20
1.443888538304526
 10
0.5555434282335404
 20
1.443888538304526
 10
0.5555434282335404
 20
1.443888538304526
 97
        0
 97
        1
330
7B
 75
     2
 76
     1
 98
        1
 10
0.0
 20
0.0
450
        0
451
        0
460
0.0
461
0.0
452
        0
462
0.0
453
        0
470

  0
SPLINE
  5
7D
330
70
100
AcDbEntity
  8
Layer 4 copy
100
AcDbSpline
210
0.0
220
0.0
230
1.0
 70
     9
 71
     3
 72
    41
 73
    37
 74
     0
 42
0.0000000001
 43
0.0000000001
 40
0.0
 40
0.0
 40
0.0
 40
0.0
 40
1.0
 40
1.0
 40
1.0
 40
2.0
 40
2.0
 40
2.0
 40
3.0
 40
3.0
 40
3.0
 40
4.0
 40
4.0
 40
4.0
 40
5.0
 40
5.0
 40
5.0
 40
6.0
 40
6.0
 40
6.0
 40
7.0
 40
7.0
 40
7.0
 40
8.0
 40
8.0
 40
8.0
 40
9.0
 40
9.0
 40
9.0
 40
10.0
 40
10.0
 40
10.0
 40
11.0
 40
11.0
 40
11.0
 40
12.0
 40
12.0
 40
12.0
 40
12.0
 10
0.1359324677633696
 20
0.9828992816887243
 30
0.0
 10
0.1257090591131423
 20
0.9828992816887243
 30
0.0
 10
0.100630350088674
 20
0.9900327883612538
 30
0.0
 10
0.0475411637054322
 20
1.037821237722545
 30
0.0
 10
-0.0127489897463167
 20
1.092085762526999
 30
0.0
 10
-0.019103673171925
 20
1.11969031747905
 30
0.0
 10
-0.0175244474454657
 20
1.131312492545096
 30
0.0
 10
-0.0163381391246276
 20
1.140085798950609
 30
0.0
 10
-0.008910488937507
 20
1.147770943321322
 30
0.0
 10
0.005189201041301
 20
1.154821326505081
 30
0.0
 10
0.0653660129337242
 20
1.184919586120208
 30
0.0
 10
0.1177222572333929
 20
1.224206769584674
 30
0.0
 10
0.1608071619810971
 20
1.271594714863719
 30
0.0
 10
0.2021088261955507
 20
1.317033036497087
 30
0.0
 10
0.2495721179971168
 20
1.373669983165642
 30
0.0
 10
0.3072176350648306
 20
1.439556683036142
 30
0.0
 10
0.3083963872817195
 20
1.441060462514769
 30
0.0
 10
0.315079543822296
 20
1.44147063758098
 30
0.0
 10
0.3182281435523969
 20
1.439269890948025
 30
0.0
 10
0.3213767432825105
 20
1.437069144315084
 30
0.0
 10
0.3203551274631687
 20
1.427198729901735
 30
0.0
 10
0.315664361701882
 20
1.415585019853122
 30
0.0
 10
0.3109660028069483
 20
1.403952510218889
 30
0.0
 10
0.3051968373883179
 20
1.390170985613634
 30
0.0
 10
0.2987762169732251
 20
1.375142942423318
 30
0.0
 10
0.2786555263061372
 20
1.328048644860688
 30
0.0
 10
0.2521372486862927
 20
1.268712962889897
 30
0.0
 10
0.2321269156387113
 20
1.224910197552377
 30
0.0
 10
0.1985324774576864
 20
1.140963030576636
 30
0.0
 10
0.16447187239895
 20
1.069634863878604
 30
0.0
 10
0.1518531787951866
 20
1.00651390917988
 30
0.0
 10
0.1471306138237196
 20
0.9828992816887243
 30
0.0
 10
0.139340270646787
 20
0.9828992816887243
 30
0.0
 10
0.136015584906886
 20
0.9828992816887243
 30
0.0
 10
0.136015584906886
 20
0.9828992816887243
 30
0.0
 10
0.1359324677633696
 20
0.9828992816887243
 30
0.0
 10
0.1359324677633696
 20
0.9828992816887243
 30
0.0
  0
HATCH
  5
7E
330
70
100
AcDbEntity
  8
Layer 4 copy
 62
    18
420
        0
440
 33554687
100
AcDbHatch
 10
0.0
 20
0.0
 30
0.0
210
0.0
220
0.0
230
1.0
  2
SOLID
 70
     1
 71
     1
 91
        1
 92
        1
 93
        1
 72
     4
 94
        3
 73
     0
 74
     0
 95
       41
 96
       37
 40
0.0
 40
0.0
 40
0.0
 40
0.0
 40
1.0
 40
1.0
 40
1.0
 40
2.0
 40
2.0
 40
2.0
 40
3.0
 40
3.0
 40
3.0
 40
4.0
 40
4.0
 40
4.0
 40
5.0
 40
5.0
 40
5.0
 40
6.0
 40
6.0
 40
6.0
 40
7.0
 40
7.0
 40
7.0
 40
8.0
 40
8.0
 40
8.0
 40
9.0
 40
9.0
 40
9.0
 40
10.0
 40
10.0
 40
10.0
 40
11.0
 40
11.0
 40
11.0
 40
12.0
 40
12.0
 40
12.0
 40
12.0
 10
0.1359324677633696
 20
0.9828992816887243
 10
0.1257090591131423
 20
0.9828992816887243
 10
0.100630350088674
 20
0.9900327883612538
 10
0.0475411637054322
 20
1.037821237722545
 10
-0.0127489897463167
 20
1.092085762526999
 10
-0.019103673171925
 20
1.11969031747905
 10
-0.0175244474454657
 20
1.131312492545096
 10
-0.0163381391246276
 20
1.140085798950609
 10
-0.008910488937507
 20
1.147770943321322
 10
0.005189201041301
 20
1.154821326505081
 10
0.0653660129337242
 20
1.184919586120208
 10
0.1177222572333929
 20
1.224206769584674
 10
0.1608071619810971
 20
1.271594714863719
 10
0.2021088261955507
 20
1.317033036497087
 10
0.2495721179971168
 20
1.373669983165642
 10
0.3072176350648306
 20
1.439556683036142
 10
0.3083963872817195
 20
1.441060462514769
 10
0.315079543822296
 20
1.44147063758098
 10
0.3182281435523969
 20
1.439269890948025
 10
0.3213767432825105
 20
1.437069144315084
 10
0.3203551274631687
 20
1.427198729901735
 10
0.315664361701882
 20
1.415585019853122
 10
0.3109660028069483
 20
1.403952510218889
 10
0.3051968373883179
 20
1.390170985613634
 10
0.2987762169732251
 20
1.375142942423318
 10
0.2786555263061372
 20
1.328048644860688
 10
0.2521372486862927
 20
1.268712962889897
 10
0.2321269156387113
 20
1.224910197552377
 10
0.1985324774576864
 20
1.140963030576636
 10
0.16447187239895
 20
1.069634863878604
 10
0.1518531787951866
 20
1.00651390917988
 10
0.1471306138237196
 20
0.9828992816887243
 10
0.139340270646787
 20
0.9828992816887243
 10
0.136015584906886
 20
0.9828992816887243
 10
0.136015584906886
 20
0.9828992816887243
 10
0.1359324677633696
 20
0.9828992816887243
 10
0.1359324677633696
 20
0.9828992816887243
 97
        0
 97
        1
330
7D
 75
     2
 76
     1
 98
        1
 10
0.0
 20
0.0
450
        0
451
        0
460
0.0
461
0.0
452
        0
462
0.0
453
        0
470

  0
SPLINE
  5
7F
330
70
100
AcDbEntity
  8
Layer 4 copy
100
AcDbSpline
210
0.0
220
0.0
230
1.0
 70
     9
 71
     3
 72
   194
 73
   190
 74
     0
 42
0.0000000001
 43
0.0000000001
 40
0.0
 40
0.0
 40
0.0
 40
0.0
 40
1.0
 40
1.0
 40
1.0
 40
2.0
 40
2.0
 40
2.0
 40
3.0
 40
3.0
 40
3.0
 40
4.0
 40
4.0
 40
4.0
 40
5.0
 40
5.0
 40
5.0
 40
6.0
 40
6.0
 40
6.0
 40
7.0
 40
7.0
 40
7.0
 40
8.0
 40
8.0
 40
8.0
 40
9.0
 40
9.0
 40
9.0
 40
10.0
 40
10.0
 40
10.0
 40
11.0
 40
11.0
 40
11.0
 40
12.0
 40
12.0
 40
12.0
 40
13.0
 40
13.0
 40
13.0
 40
14.0
 40
14.0
 40
14.0
 40
15.0
 40
15.0
 40
15.0
 40
16.0
 40
16.0
 40
16.0
 40
17.0
 40
17.0
 40
17.0
 40
18.0
 40
18.0
 40
18.0
 40
19.0
 40
19.0
 40
19.0
 40
20.0
 40
20.0
 40
20.0
 40
21.0
 40
21.0
 40
21.0
 40
22.0
 40
22.0
 40
22.0
 40
23.0
 40
23.0
 40
23.0
 40
24.0
 40
24.0
 40
24.0
 40
25.0
 40
25.0
 40
25.0
 40
26.0
 40
26.0
 40
26.0
 40
27.0
 40
27.0
 40
27.0
 40
28.0
 40
28.0
 40
28.0
 40
29.0
 40
29.0
 40
29.0
 40
30.0
 40
30.0
 40
30.0
 40
31.0
 40
31.0
 40
31.0
 40
32.0
 40
32.0
 40
32.0
 40
33.0
 40
33.0
 40
33.0
 40
34.0
 40
34.0
 40
34.0
 40
35.0
 40
35.0
 40
35.0
 40
36.0
 40
36.0
 40
36.0
 40
37.0
 40
37.0
 40
37.0
 40
38.0
 40
38.0
 40
38.0
 40
39.0
 40
39.0
 40
39.0
 40
40.0
 40
40.0
 40
40.0
 40
41.0
 40
41.0
 40
41.0
 40
42.0
 40
42.0
 40
42.0
 40
43.0
 40
43.0
 40
43.0
 40
44.0
 40
44.0
 40
44.0
 40
45.0
 40
45.0
 40
45.0
 40
46.0
 40
46.0
 40
46.0
 40
47.0
 40
47.0
 40
47.0
 40
48.0
 40
48.0
 40
48.0
 40
49.0
 40
49.0
 40
49.0
 40
50.0
 40
50.0
 40
50.0
 40
51.0
 40
51.0
 40
51.0
 40
52.0
 40
52.0
 40
52.0
 40
53.0
 40
53.0
 40
53.0
 40
54.0
 40
54.0
 40
54.0
 40
55.0
 40
55.0
 40
55.0
 40
56.0
 40
56.0
 40
56.0
 40
57.0
 40
57.0
 40
57.0
 40
58.0
 40
58.0
 40
58.0
 40
59.0
 40
59.0
 40
59.0
 40
60.0
 40
60.0
 40
60.0
 40
61.0
 40
61.0
 40
61.0
 40
62.0
 40
62.0
 40
62.0
 40
63.0
 40
63.0
 40
63.0
 40
63.0
 10
1.36117129297256
 20
1.064285489165867
 30
0.0
 10
1.332319885688977
 20
1.064285489165867
 30
0.0
 10
1.304329940016259
 20
1.073058795571379
 30
0.0
 10
1.286329926357413
 20
1.087748983041061
 30
0.0
 10
1.240657347619339
 20
1.125010976051902
 30
0.0
 10
1.118259963314913
 20
1.228032240520544
 30
0.0
 10
1.116854420686675
 20
1.229331989617662
 30
0.0
 10
1.108345598109028
 20
1.238475573382237
 30
0.0
 10
1.106123933954702
 20
1.250626716104079
 30
0.0
 10
1.111171796727199
 20
1.262248891170126
 30
0.0
 10
1.116325453030842
 20
1.274127993383267
 30
0.0
 10
1.127479113887476
 20
1.281798024392388
 30
0.0
 10
1.13960002988612
 20
1.281798024392388
 30
0.0
 10
1.144285171980375
 20
1.281798024392388
 30
0.0
 10
1.149030767521
 20
1.280656965592028
 30
0.0
 10
1.153700796253638
 20
1.278397518033671
 30
0.0
 10
1.153700796253638
 20
1.278397518033671
 30
0.0
 10
1.25234661876963
 20
1.222588287707923
 30
0.0
 10
1.25234661876963
 20
1.222588287707923
 30
0.0
 10
1.262593477930572
 20
1.218220526207157
 30
0.0
 10
1.272598523306012
 20
1.216248232519092
 30
0.0
 10
1.283056969529297
 20
1.216248232519092
 30
0.0
 10
1.32005447871226
 20
1.216248232519092
 30
0.0
 10
1.352956266903119
 20
1.240588301366768
 30
0.0
 10
1.357973902952431
 20
1.271661372804727
 30
0.0
 10
1.363596073465537
 20
1.301668952250275
 30
0.0
 10
1.492488072714397
 20
2.004484276253176
 30
0.0
 10
1.49421099593615
 20
2.029980517262831
 30
0.0
 10
1.495450291586873
 20
2.048433931769497
 30
0.0
 10
1.487818043981708
 20
2.067937724906995
 30
0.0
 10
1.473278990127962
 20
2.083489373987567
 30
0.0
 10
1.458694596189439
 20
2.099086363152915
 30
0.0
 10
1.439561080411042
 20
2.108033473216765
 30
0.0
 10
1.420775171949243
 20
2.108033473216765
 30
0.0
 10
1.419278949151399
 20
2.108033473216765
 30
0.0
 10
1.417767612991989
 20
2.107973019770383
 30
0.0
 10
1.416256276832579
 20
2.107859669558428
 30
0.0
 10
1.416256276832579
 20
2.107859669558428
 30
0.0
 10
1.239913573749845
 20
2.092700967879308
 30
0.0
 10
1.239913573749845
 20
2.092700967879308
 30
0.0
 10
1.204336720556814
 20
2.089640512156456
 30
0.0
 10
1.175938714121053
 20
2.061839483503679
 30
0.0
 10
1.172417300869533
 20
2.026587567584897
 30
0.0
 10
1.162442482217278
 20
1.92715676165575
 30
0.0
 10
1.127303916510476
 20
1.759761168636903
 30
0.0
 10
1.058613688064193
 20
1.588156504414023
 30
0.0
 10
0.9961501645948374
 20
1.432118602633307
 30
0.0
 10
0.7816915635711818
 20
1.190607084355835
 30
0.0
 10
0.7055806745821024
 20
1.190599527675039
 30
0.0
 10
0.7007066154679302
 20
1.190599527675039
 30
0.0
 10
0.6968753783037553
 20
1.191717916433011
 30
0.0
 10
0.6938753760272852
 20
1.194030260756941
 30
0.0
 10
0.6847771323475122
 20
1.20103530385591
 30
0.0
 10
0.6801448870188425
 20
1.208085687039682
 30
0.0
 10
0.6797217128941813
 20
1.215589471071262
 30
0.0
 10
0.6786940043057763
 20
1.23371794830368
 30
0.0
 10
0.7011222329117825
 20
1.255443405595529
 30
0.0
 10
0.7248653239764736
 20
1.278438385261311
 30
0.0
 10
0.7410819609671964
 20
1.294148724638615
 30
0.0
 10
0.7578426789753192
 20
1.310388031671739
 30
0.0
 10
0.7694799674029582
 20
1.327692830697249
 30
0.0
 10
0.7746260670258178
 20
1.335347748344777
 30
0.0
 10
0.780935895491464
 20
1.344219291600653
 30
0.0
 10
0.7881222989295667
 20
1.354330130507264
 30
0.0
 10
0.8330543229495155
 20
1.41755687873716
 30
0.0
 10
0.9082508535621956
 20
1.523365523259106
 30
0.0
 10
0.9560695296466594
 20
1.682312747146726
 30
0.0
 10
0.9934599862310227
 20
1.806521909409777
 30
0.0
 10
1.015087206672534
 20
1.922720990027831
 30
0.0
 10
1.011187959381155
 20
1.978345717375772
 30
0.0
 10
1.008210627147086
 20
2.02078403673267
 30
0.0
 10
0.9764574544373974
 20
2.039758862214347
 30
0.0
 10
0.9600896838307511
 20
2.04386213988721
 30
0.0
 10
0.954875574080663
 20
2.04526012583469
 30
0.0
 10
0.9490720432284735
 20
2.045985567191223
 30
0.0
 10
0.9429813585059541
 20
2.045985567191223
 30
0.0
 10
0.9274448227869621
 20
2.045985567191223
 30
0.0
 10
0.9121652142151155
 20
2.041307981777777
 30
0.0
 10
0.9010191100392653
 20
2.037884805376658
 30
0.0
 10
0.9010191100392653
 20
2.037884805376658
 30
0.0
 10
0.8962810711794492
 20
2.036449036025197
 30
0.0
 10
0.8962810711794492
 20
2.036449036025197
 30
0.0
 10
0.8816211104329138
 20
2.032103944566832
 30
0.0
 10
0.7711197671359161
 20
2.007242464744144
 30
0.0
 10
0.770001378377957
 20
2.006993094277845
 30
0.0
 10
0.7667746756775512
 20
2.006108962624567
 30
0.0
 10
0.7632910458300759
 20
2.005700901861524
 30
0.0
 10
0.7592633349651755
 20
2.005700901861524
 30
0.0
 10
0.738323772476229
 20
2.005700901861524
 30
0.0
 10
0.706154982322687
 20
2.016862119398941
 30
0.0
 10
0.6877695779431735
 20
2.037552311421576
 30
0.0
 10
0.676940854360838
 20
2.049741237547423
 30
0.0
 10
0.6723463924361618
 20
2.063501953279051
 30
0.0
 10
0.6741222124234759
 20
2.078433954534261
 30
0.0
 10
0.6771675547847483
 20
2.104066215798247
 30
0.0
 10
0.6943061068327299
 20
2.107852112877632
 30
0.0
 10
0.7362381285762087
 20
2.114653125595092
 30
0.0
 10
0.7516764274448128
 20
2.117154386938952
 30
0.0
 10
0.7691777001710609
 20
2.11999569891869
 30
0.0
 10
0.7887419467549282
 20
2.124975551564009
 30
0.0
 10
0.796608451464787
 20
2.126970515294462
 30
0.0
 10
0.8095454889895437
 20
2.128217367626007
 30
0.0
 10
0.8274548224788102
 20
2.129947847528556
 30
0.0
 10
0.8586110174055395
 20
2.132947849805026
 30
0.0
 10
0.9056966954527119
 20
2.13748941496413
 30
0.0
 10
0.9696111016351601
 20
2.150426452488873
 30
0.0
 10
1.172069693552859
 20
2.19142900249431
 30
0.0
 10
1.475228613773651
 20
2.263799334488781
 30
0.0
 10
1.478266399454115
 20
2.264524775845302
 30
0.0
 10
1.482452800615722
 20
2.264857269800384
 30
0.0
 10
1.487757590535339
 20
2.265106640266695
 30
0.0
 10
1.493077493816599
 20
2.265106640266695
 30
0.0
 10
1.518226127509529
 20
2.265106640266695
 30
0.0
 10
1.544855870638785
 20
2.259439129668824
 30
0.0
 10
1.566105257040387
 20
2.249554991186123
 30
0.0
 10
1.595999486273992
 20
2.238937854666093
 30
0.0
 10
1.621994468216245
 20
2.221753962533347
 30
0.0
 10
1.642881133939605
 20
2.207940350036109
 30
0.0
 10
1.64711287518604
 20
2.205151934821957
 30
0.0
 10
1.651102802646947
 20
2.202514653223753
 30
0.0
 10
1.654835802960734
 20
2.200119185411052
 30
0.0
 10
1.66812044780214
 20
2.191595249471839
 30
0.0
 10
1.678473100494304
 20
2.183826981612355
 30
0.0
 10
1.689430287650161
 20
2.175605312905038
 30
0.0
 10
1.696533567599494
 20
2.170285409623829
 30
0.0
 10
1.703818207887984
 20
2.16482192940748
 30
0.0
 10
1.712221236934434
 20
2.158905048343298
 30
0.0
 10
1.731974400538244
 20
2.144993198995709
 30
0.0
 10
1.731913947091874
 20
2.122519630304938
 30
0.0
 10
1.730115457062108
 20
2.110353374221492
 30
0.0
 10
1.728513440733144
 20
2.099388630384813
 30
0.0
 10
1.7184177151881
 20
2.08126770983319
 30
0.0
 10
1.70773256854093
 20
2.062073740608386
 30
0.0
 10
1.703379920401731
 20
2.054267689344922
 30
0.0
 10
1.698845911923424
 20
2.046106474083974
 30
0.0
 10
1.694478150422658
 20
2.037786568526295
 30
0.0
 10
1.665520949607955
 20
1.982532118537404
 30
0.0
 10
1.6243068125402
 20
1.836975333022362
 30
0.0
 10
1.622568775956854
 20
1.830809081491868
 30
0.0
 10
1.619833257508263
 20
1.820826706158817
 30
0.0
 10
1.615541062815484
 20
1.803038279562277
 30
0.0
 10
1.609420151369729
 20
1.776378309709874
 30
0.0
 10
1.609420151369729
 20
1.776378309709874
 30
0.0
 10
1.609223677669029
 20
1.77555463150299
 30
0.0
 10
1.609223677669029
 20
1.77555463150299
 30
0.0
 10
1.609223677669029
 20
1.77555463150299
 30
0.0
 10
1.609223677669029
 20
1.774708283253693
 30
0.0
 10
1.609223677669029
 20
1.774708283253693
 30
0.0
 10
1.609012090606711
 20
1.748184333655646
 30
0.0
 10
1.612140556456754
 20
1.713159118160774
 30
0.0
 10
1.628296740001057
 20
1.696889584404465
 30
0.0
 10
1.663752686301424
 20
1.661154040914665
 30
0.0
 10
1.708790503852494
 20
1.654035647603728
 30
0.0
 10
1.741677178681811
 20
1.648844207896078
 30
0.0
 10
1.751213709847812
 20
1.64733287173663
 30
0.0
 10
1.759450491916696
 20
1.646033122639538
 30
0.0
 10
1.766115484379825
 20
1.644264859332995
 30
0.0
 10
1.769274176953053
 20
1.643426067764506
 30
0.0
 10
1.773702391900188
 20
1.642511709388044
 30
0.0
 10
1.779052521904557
 20
1.64141599067246
 30
0.0
 10
1.808765390799079
 20
1.635317749269145
 30
0.0
 10
1.870609266443074
 20
1.622637638891508
 30
0.0
 10
1.897284349657082
 20
1.579186724307785
 30
0.0
 10
1.911944310403542
 20
1.555330283031126
 30
0.0
 10
1.914286881450708
 20
1.52467282903702
 30
0.0
 10
1.904266722713651
 20
1.488068267255546
 30
0.0
 10
1.896740268639657
 20
1.460561949153846
 30
0.0
 10
1.882186101424344
 20
1.447745818521853
 30
0.0
 10
1.858473237082787
 20
1.447745818521853
 30
0.0
 10
1.830619311664476
 20
1.447745818521853
 30
0.0
 10
1.795450519234438
 20
1.466176562986144
 30
0.0
 10
1.771420274299442
 20
1.480043072248943
 30
0.0
 10
1.752029831373925
 20
1.491226959828761
 30
0.0
 10
1.735374906896974
 20
1.505017902283586
 30
0.0
 10
1.719264063437397
 20
1.518347887209781
 30
0.0
 10
1.690805603555241
 20
1.541902061254555
 30
0.0
 10
1.66391893327894
 20
1.564148929521429
 30
0.0
 10
1.629309335227895
 20
1.564148929521429
 30
0.0
 10
1.622402528979313
 20
1.564148929521429
 30
0.0
 10
1.615284135668364
 20
1.563242127825749
 30
0.0
 10
1.608165742357464
 20
1.561458751157626
 30
0.0
 10
1.566498204441864
 20
1.551045645019131
 30
0.0
 10
1.559223425942592
 20
1.528497839738861
 30
0.0
 10
1.558770025094746
 20
1.527250987407329
 30
0.0
 10
1.558770025094746
 20
1.527250987407329
 30
0.0
 10
1.467947192636529
 20
1.1329983876545
 30
0.0
 10
1.467947192636529
 20
1.1329983876545
 30
0.0
 10
1.44347866021533
 20
1.071086501883314
 30
0.0
 10
1.385110857738002
 20
1.064285489165867
 30
0.0
 10
1.36117129297256
 20
1.064285489165867
 30
0.0
  0
HATCH
  5
80
330
70
100
AcDbEntity
  8
Layer 4 copy
 62
    18
420
        0
440
 33554687
100
AcDbHatch
 10
0.0
 20
0.0
 30
0.0
210
0.0
220
0.0
230
1.0
  2
SOLID
 70
     1
 71
     1
 91
        1
 92
        1
 93
        1
 72
     4
 94
        3
 73
     0
 74
     0
 95
      194
 96
      190
 40
0.0
 40
0.0
 40
0.0
 40
0.0
 40
1.0
 40
1.0
 40
1.0
 40
2.0
 40
2.0
 40
2.0
 40
3.0
 40
3.0
 40
3.0
 40
4.0
 40
4.0
 40
4.0
 40
5.0
 40
5.0
 40
5.0
 40
6.0
 40
6.0
 40
6.0
 40
7.0
 40
7.0
 40
7.0
 40
8.0
 40
8.0
 40
8.0
 40
9.0
 40
9.0
 40
9.0
 40
10.0
 40
10.0
 40
10.0
 40
11.0
 40
11.0
 40
11.0
 40
12.0
 40
12.0
 40
12.0
 40
13.0
 40
13.0
 40
13.0
 40
14.0
 40
14.0
 40
14.0
 40
15.0
 40
15.0
 40
15.0
 40
16.0
 40
16.0
 40
16.0
 40
17.0
 40
17.0
 40
17.0
 40
18.0
 40
18.0
 40
18.0
 40
19.0
 40
19.0
 40
19.0
 40
20.0
 40
20.0
 40
20.0
 40
21.0
 40
21.0
 40
21.0
 40
22.0
 40
22.0
 40
22.0
 40
23.0
 40
23.0
 40
23.0
 40
24.0
 40
24.0
 40
24.0
 40
25.0
 40
25.0
 40
25.0
 40
26.0
 40
26.0
 40
26.0
 40
27.0
 40
27.0
 40
27.0
 40
28.0
 40
28.0
 40
28.0
 40
29.0
 40
29.0
 40
29.0
 40
30.0
 40
30.0
 40
30.0
 40
31.0
 40
31.0
 40
31.0
 40
32.0
 40
32.0
 40
32.0
 40
33.0
 40
33.0
 40
33.0
 40
34.0
 40
34.0
 40
34.0
 40
35.0
 40
35.0
 40
35.0
 40
36.0
 40
36.0
 40
36.0
 40
37.0
 40
37.0
 40
37.0
 40
38.0
 40
38.0
 40
38.0
 40
39.0
 40
39.0
 40
39.0
 40
40.0
 40
40.0
 40
40.0
 40
41.0
 40
41.0
 40
41.0
 40
42.0
 40
42.0
 40
42.0
 40
43.0
 40
43.0
 40
43.0
 40
44.0
 40
44.0
 40
44.0
 40
45.0
 40
45.0
 40
45.0
 40
46.0
 40
46.0
 40
46.0
 40
47.0
 40
47.0
 40
47.0
 40
48.0
 40
48.0
 40
48.0
 40
49.0
 40
49.0
 40
49.0
 40
50.0
 40
50.0
 40
50.0
 40
51.0
 40
51.0
 40
51.0
 40
52.0
 40
52.0
 40
52.0
 40
53.0
 40
53.0
 40
53.0
 40
54.0
 40
54.0
 40
54.0
 40
55.0
 40
55.0
 40
55.0
 40
56.0
 40
56.0
 40
56.0
 40
57.0
 40
57.0
 40
57.0
 40
58.0
 40
58.0
 40
58.0
 40
59.0
 40
59.0
 40
59.0
 40
60.0
 40
60.0
 40
60.0
 40
61.0
 40
61.0
 40
61.0
 40
62.0
 40
62.0
 40
62.0
 40
63.0
 40
63.0
 40
63.0
 40
63.0
 10
1.36117129297256
 20
1.064285489165867
 10
1.332319885688977
 20
1.064285489165867
 10
1.304329940016259
 20
1.073058795571379
 10
1.286329926357413
 20
1.087748983041061
 10
1.240657347619339
 20
1.125010976051902
 10
1.118259963314913
 20
1.228032240520544
 10
1.116854420686675
 20
1.229331989617662
 10
1.108345598109028
 20
1.238475573382237
 10
1.106123933954702
 20
1.250626716104079
 10
1.111171796727199
 20
1.262248891170126
 10
1.116325453030842
 20
1.274127993383267
 10
1.127479113887476
 20
1.281798024392388
 10
1.13960002988612
 20
1.281798024392388
 10
1.144285171980375
 20
1.281798024392388
 10
1.149030767521
 20
1.280656965592028
 10
1.153700796253638
 20
1.278397518033671
 10
1.153700796253638
 20
1.278397518033671
 10
1.25234661876963
 20
1.222588287707923
 10
1.25234661876963
 20
1.222588287707923
 10
1.262593477930572
 20
1.218220526207157
 10
1.272598523306012
 20
1.216248232519092
 10
1.283056969529297
 20
1.216248232519092
 10
1.32005447871226
 20
1.216248232519092
 10
1.352956266903119
 20
1.240588301366768
 10
1.357973902952431
 20
1.271661372804727
 10
1.363596073465537
 20
1.301668952250275
 10
1.492488072714397
 20
2.004484276253176
 10
1.49421099593615
 20
2.029980517262831
 10
1.495450291586873
 20
2.048433931769497
 10
1.487818043981708
 20
2.067937724906995
 10
1.473278990127962
 20
2.083489373987567
 10
1.458694596189439
 20
2.099086363152915
 10
1.439561080411042
 20
2.108033473216765
 10
1.420775171949243
 20
2.108033473216765
 10
1.419278949151399
 20
2.108033473216765
 10
1.417767612991989
 20
2.107973019770383
 10
1.416256276832579
 20
2.107859669558428
 10
1.416256276832579
 20
2.107859669558428
 10
1.239913573749845
 20
2.092700967879308
 10
1.239913573749845
 20
2.092700967879308
 10
1.204336720556814
 20
2.089640512156456
 10
1.175938714121053
 20
2.061839483503679
 10
1.172417300869533
 20
2.026587567584897
 10
1.162442482217278
 20
1.92715676165575
 10
1.127303916510476
 20
1.759761168636903
 10
1.058613688064193
 20
1.588156504414023
 10
0.9961501645948374
 20
1.432118602633307
 10
0.7816915635711818
 20
1.190607084355835
 10
0.7055806745821024
 20
1.190599527675039
 10
0.7007066154679302
 20
1.190599527675039
 10
0.6968753783037553
 20
1.191717916433011
 10
0.6938753760272852
 20
1.194030260756941
 10
0.6847771323475122
 20
1.20103530385591
 10
0.6801448870188425
 20
1.208085687039682
 10
0.6797217128941813
 20
1.215589471071262
 10
0.6786940043057763
 20
1.23371794830368
 10
0.7011222329117825
 20
1.255443405595529
 10
0.7248653239764736
 20
1.278438385261311
 10
0.7410819609671964
 20
1.294148724638615
 10
0.7578426789753192
 20
1.310388031671739
 10
0.7694799674029582
 20
1.327692830697249
 10
0.7746260670258178
 20
1.335347748344777
 10
0.780935895491464
 20
1.344219291600653
 10
0.7881222989295667
 20
1.354330130507264
 10
0.8330543229495155
 20
1.41755687873716
 10
0.9082508535621956
 20
1.523365523259106
 10
0.9560695296466594
 20
1.682312747146726
 10
0.9934599862310227
 20
1.806521909409777
 10
1.015087206672534
 20
1.922720990027831
 10
1.011187959381155
 20
1.978345717375772
 10
1.008210627147086
 20
2.02078403673267
 10
0.9764574544373974
 20
2.039758862214347
 10
0.9600896838307511
 20
2.04386213988721
 10
0.954875574080663
 20
2.04526012583469
 10
0.9490720432284735
 20
2.045985567191223
 10
0.9429813585059541
 20
2.045985567191223
 10
0.9274448227869621
 20
2.045985567191223
 10
0.9121652142151155
 20
2.041307981777777
 10
0.9010191100392653
 20
2.037884805376658
 10
0.9010191100392653
 20
2.037884805376658
 10
0.8962810711794492
 20
2.036449036025197
 10
0.8962810711794492
 20
2.036449036025197
 10
0.8816211104329138
 20
2.032103944566832
 10
0.7711197671359161
 20
2.007242464744144
 10
0.770001378377957
 20
2.006993094277845
 10
0.7667746756775512
 20
2.006108962624567
 10
0.7632910458300759
 20
2.005700901861524
 10
0.7592633349651755
 20
2.005700901861524
 10
0.738323772476229
 20
2.005700901861524
 10
0.706154982322687
 20
2.016862119398941
 10
0.6877695779431735
 20
2.037552311421576
 10
0.676940854360838
 20
2.049741237547423
 10
0.6723463924361618
 20
2.063501953279051
 10
0.6741222124234759
 20
2.078433954534261
 10
0.6771675547847483
 20
2.104066215798247
 10
0.6943061068327299
 20
2.107852112877632
 10
0.7362381285762087
 20
2.114653125595092
 10
0.7516764274448128
 20
2.117154386938952
 10
0.7691777001710609
 20
2.11999569891869
 10
0.7887419467549282
 20
2.124975551564009
 10
0.796608451464787
 20
2.126970515294462
 10
0.8095454889895437
 20
2.128217367626007
 10
0.8274548224788102
 20
2.129947847528556
 10
0.8586110174055395
 20
2.132947849805026
 10
0.9056966954527119
 20
2.13748941496413
 10
0.9696111016351601
 20
2.150426452488873
 10
1.172069693552859
 20
2.19142900249431
 10
1.475228613773651
 20
2.263799334488781
 10
1.478266399454115
 20
2.264524775845302
 10
1.482452800615722
 20
2.264857269800384
 10
1.487757590535339
 20
2.265106640266695
 10
1.493077493816599
 20
2.265106640266695
 10
1.518226127509529
 20
2.265106640266695
 10
1.544855870638785
 20
2.259439129668824
 10
1.566105257040387
 20
2.249554991186123
 10
1.595999486273992
 20
2.238937854666093
 10
1.621994468216245
 20
2.221753962533347
 10
1.642881133939605
 20
2.207940350036109
 10
1.64711287518604
 20
2.205151934821957
 10
1.651102802646947
 20
2.202514653223753
 10
1.654835802960734
 20
2.200119185411052
 10
1.66812044780214
 20
2.191595249471839
 10
1.678473100494304
 20
2.183826981612355
 10
1.689430287650161
 20
2.175605312905038
 10
1.696533567599494
 20
2.170285409623829
 10
1.703818207887984
 20
2.16482192940748
 10
1.712221236934434
 20
2.158905048343298
 10
1.731974400538244
 20
2.144993198995709
 10
1.731913947091874
 20
2.122519630304938
 10
1.730115457062108
 20
2.110353374221492
 10
1.728513440733144
 20
2.099388630384813
 10
1.7184177151881
 20
2.08126770983319
 10
1.70773256854093
 20
2.062073740608386
 10
1.703379920401731
 20
2.054267689344922
 10
1.698845911923424
 20
2.046106474083974
 10
1.694478150422658
 20
2.037786568526295
 10
1.665520949607955
 20
1.982532118537404
 10
1.6243068125402
 20
1.836975333022362
 10
1.622568775956854
 20
1.830809081491868
 10
1.619833257508263
 20
1.820826706158817
 10
1.615541062815484
 20
1.803038279562277
 10
1.609420151369729
 20
1.776378309709874
 10
1.609420151369729
 20
1.776378309709874
 10
1.609223677669029
 20
1.77555463150299
 10
1.609223677669029
 20
1.77555463150299
 10
1.609223677669029
 20
1.77555463150299
 10
1.609223677669029
 20
1.774708283253693
 10
1.609223677669029
 20
1.774708283253693
 10
1.609012090606711
 20
1.748184333655646
 10
1.612140556456754
 20
1.713159118160774
 10
1.628296740001057
 20
1.696889584404465
 10
1.663752686301424
 20
1.661154040914665
 10
1.708790503852494
 20
1.654035647603728
 10
1.741677178681811
 20
1.648844207896078
 10
1.751213709847812
 20
1.64733287173663
 10
1.759450491916696
 20
1.646033122639538
 10
1.766115484379825
 20
1.644264859332995
 10
1.769274176953053
 20
1.643426067764506
 10
1.773702391900188
 20
1.642511709388044
 10
1.779052521904557
 20
1.64141599067246
 10
1.808765390799079
 20
1.635317749269145
 10
1.870609266443074
 20
1.622637638891508
 10
1.897284349657082
 20
1.579186724307785
 10
1.911944310403542
 20
1.555330283031126
 10
1.914286881450708
 20
1.52467282903702
 10
1.904266722713651
 20
1.488068267255546
 10
1.896740268639657
 20
1.460561949153846
 10
1.882186101424344
 20
1.447745818521853
 10
1.858473237082787
 20
1.447745818521853
 10
1.830619311664476
 20
1.447745818521853
 10
1.795450519234438
 20
1.466176562986144
 10
1.771420274299442
 20
1.480043072248943
 10
1.752029831373925
 20
1.491226959828761
 10
1.735374906896974
 20
1.505017902283586
 10
1.719264063437397
 20
1.518347887209781
 10
1.690805603555241
 20
1.541902061254555
 10
1.66391893327894
 20
1.564148929521429
 10
1.629309335227895
 20
1.564148929521429
 10
1.622402528979313
 20
1.564148929521429
 10
1.615284135668364
 20
1.563242127825749
 10
1.608165742357464
 20
1.561458751157626
 10
1.566498204441864
 20
1.551045645019131
 10
1.559223425942592
 20
1.528497839738861
 10
1.558770025094746
 20
1.527250987407329
 10
1.558770025094746
 20
1.527250987407329
 10
1.467947192636529
 20
1.1329983876545
 10
1.467947192636529
 20
1.1329983876545
 10
1.44347866021533
 20
1.071086501883314
 10
1.385110857738002
 20
1.064285489165867
 10
1.36117129297256
 20
1.064285489165867
 97
        0
 97
        1
330
7F
 75
     2
 76
     1
 98
        1
 10
0.0
 20
0.0
450
        0
451
        0
460
0.0
461
0.0
452
        0
462
0.0
453
        0
470

  0
SPLINE
  5
81
330
70
100
AcDbEntity
  8
Layer 4 copy
100
AcDbSpline
210
0.0
220
0.0
230
1.0
 70
     9
 71
     3
 72
    32
 73
    28
 74
     0
 42
0.0000000001
 43
0.0000000001
 40
0.0
 40
0.0
 40
0.0
 40
0.0
 40
1.0
 40
1.0
 40
1.0
 40
2.0
 40
2.0
 40
2.0
 40
3.0
 40
3.0
 40
3.0
 40
4.0
 40
4.0
 40
4.0
 40
5.0
 40
5.0
 40
5.0
 40
6.0
 40
6.0
 40
6.0
 40
7.0
 40
7.0
 40
7.0
 40
8.0
 40
8.0
 40
8.0
 40
9.0
 40
9.0
 40
9.0
 40
9.0
 10
0.3751598790585402
 20
1.964266814709313
 30
0.0
 10
0.359162385810944
 20
1.964266814709313
 30
0.0
 10
0.3373386916687195
 20
1.973410398473889
 30
0.0
 10
0.310285774414865
 20
1.991448195536715
 30
0.0
 10
0.237477154934153
 20
2.039984756296929
 30
0.0
 10
0.1801672877684268
 20
2.08906539807453
 30
0.0
 10
0.1399506325658927
 20
2.137322361645247
 30
0.0
 10
0.115716357249375
 20
2.171312311870906
 30
0.0
 10
0.119494697647964
 20
2.182806023363392
 30
0.0
 10
0.1204997361939933
 20
2.184763203689852
 30
0.0
 10
0.1225627100516249
 20
2.188768244512364
 30
0.0
 10
0.1321370246216323
 20
2.19305288252436
 30
0.0
 10
0.1528121032826751
 20
2.19305288252436
 30
0.0
 10
0.1564317533845193
 20
2.19305288252436
 30
0.0
 10
0.1602781039102865
 20
2.192924418950812
 30
0.0
 10
0.1643435981791552
 20
2.192675048484501
 30
0.0
 10
0.2284091379775393
 20
2.188662450981206
 30
0.0
 10
0.2892857584795239
 20
2.174463447763324
 30
0.0
 10
0.3452656498249476
 20
2.150478542913118
 30
0.0
 10
0.3966057391609057
 20
2.128465931750964
 30
0.0
 10
0.4179231356897112
 20
2.08497723376326
 30
0.0
 10
0.4104269083389278
 20
2.017518744286942
 30
0.0
 10
0.4045100272747328
 20
1.964266814709313
 30
0.0
 10
0.3832606408730928
 20
1.964266814709313
 30
0.0
 10
0.3752656725896991
 20
1.964266814709313
 30
0.0
 10
0.3752656725896991
 20
1.964266814709313
 30
0.0
 10
0.3751598790585402
 20
1.964266814709313
 30
0.0
 10
0.3751598790585402
 20
1.964266814709313
 30
0.0
  0
HATCH
  5
82
330
70
100
AcDbEntity
  8
Layer 4 copy
 62
    18
420
        0
440
 33554687
100
AcDbHatch
 10
0.0
 20
0.0
 30
0.0
210
0.0
220
0.0
230
1.0
  2
SOLID
 70
     1
 71
     1
 91
        1
 92
        1
 93
        1
 72
     4
 94
        3
 73
     0
 74
     0
 95
       32
 96
       28
 40
0.0
 40
0.0
 40
0.0
 40
0.0
 40
1.0
 40
1.0
 40
1.0
 40
2.0
 40
2.0
 40
2.0
 40
3.0
 40
3.0
 40
3.0
 40
4.0
 40
4.0
 40
4.0
 40
5.0
 40
5.0
 40
5.0
 40
6.0
 40
6.0
 40
6.0
 40
7.0
 40
7.0
 40
7.0
 40
8.0
 40
8.0
 40
8.0
 40
9.0
 40
9.0
 40
9.0
 40
9.0
 10
0.3751598790585402
 20
1.964266814709313
 10
0.359162385810944
 20
1.964266814709313
 10
0.3373386916687195
 20
1.973410398473889
 10
0.310285774414865
 20
1.991448195536715
 10
0.237477154934153
 20
2.039984756296929
 10
0.1801672877684268
 20
2.08906539807453
 10
0.1399506325658927
 20
2.137322361645247
 10
0.115716357249375
 20
2.171312311870906
 10
0.119494697647964
 20
2.182806023363392
 10
0.1204997361939933
 20
2.184763203689852
 10
0.1225627100516249
 20
2.188768244512364
 10
0.1321370246216323
 20
2.19305288252436
 10
0.1528121032826751
 20
2.19305288252436
 10
0.1564317533845193
 20
2.19305288252436
 10
0.1602781039102865
 20
2.192924418950812
 10
0.1643435981791552
 20
2.192675048484501
 10
0.2284091379775393
 20
2.188662450981206
 10
0.2892857584795239
 20
2.174463447763324
 10
0.3452656498249476
 20
2.150478542913118
 10
0.3966057391609057
 20
2.128465931750964
 10
0.4179231356897112
 20
2.08497723376326
 10
0.4104269083389278
 20
2.017518744286942
 10
0.4045100272747328
 20
1.964266814709313
 10
0.3832606408730928
 20
1.964266814709313
 10
0.3752656725896991
 20
1.964266814709313
 10
0.3752656725896991
 20
1.964266814709313
 10
0.3751598790585402
 20
1.964266814709313
 10
0.3751598790585402
 20
1.964266814709313
 97
        0
 97
        1
330
81
 75
     2
 76
     1
 98
        1
 10
0.0
 20
0.0
450
        0
451
        0
460
0.0
461
0.0
452
        0
462
0.0
453
        0
470

  0
SPLINE
  5
83
330
70
100
AcDbEntity
  8
Layer 4 copy
100
AcDbSpline
210
0.0
220
0.0
230
1.0
 70
     9
 71
     3
 72
    32
 73
    28
 74
     0
 42
0.0000000001
 43
0.0000000001
 40
0.0
 40
0.0
 40
0.0
 40
0.0
 40
1.0
 40
1.0
 40
1.0
 40
2.0
 40
2.0
 40
2.0
 40
3.0
 40
3.0
 40
3.0
 40
4.0
 40
4.0
 40
4.0
 40
5.0
 40
5.0
 40
5.0
 40
6.0
 40
6.0
 40
6.0
 40
7.0
 40
7.0
 40
7.0
 40
8.0
 40
8.0
 40
8.0
 40
9.0
 40
9.0
 40
9.0
 40
9.0
 10
0.1549279739058925
 20
1.602921452350351
 30
0.0
 10
0.1424745639521537
 20
1.602921452350351
 30
0.0
 10
0.1261294633878833
 20
1.60894412694568
 30
0.0
 10
0.106330959699297
 20
1.620823229158834
 30
0.0
 10
0.0467238615712328
 20
1.656573886010227
 30
0.0
 10
-0.0037018693882626
 20
1.707037400373716
 30
0.0
 10
-0.0435558039125302
 20
1.770800672940228
 30
0.0
 10
-0.0690293748797836
 20
1.811553852479341
 30
0.0
 10
-0.0659613624761227
 20
1.826425400288169
 30
0.0
 10
-0.0634601011322628
 20
1.830929182043279
 30
0.0
 10
-0.0600142546887557
 20
1.837155887020154
 30
0.0
 10
-0.0483240694955309
 20
1.840586620102069
 30
0.0
 10
-0.0305431995797992
 20
1.840586620102069
 30
0.0
 10
-0.0273240535602023
 20
1.840586620102069
 30
0.0
 10
-0.0239462172438733
 20
1.840473269890101
 30
0.0
 10
-0.0203945772692072
 20
1.840254126146987
 30
0.0
 10
0.0424694502824347
 20
1.836324652132462
 30
0.0
 10
0.0960765438575461
 20
1.818528668855138
 30
0.0
 10
0.1389380373390799
 20
1.787357360566817
 30
0.0
 10
0.1798801338981346
 20
1.757576481545179
 30
0.0
 10
0.1960967708888574
 20
1.713596599305674
 30
0.0
 10
0.1885098633684947
 20
1.652908895823619
 30
0.0
 10
0.1822604883492431
 20
1.602921452350351
 30
0.0
 10
0.1617592133465248
 20
1.602921452350351
 30
0.0
 10
0.1550186540754465
 20
1.602921452350351
 30
0.0
 10
0.1550186540754465
 20
1.602921452350351
 30
0.0
 10
0.1549279739058925
 20
1.602921452350351
 30
0.0
 10
0.1549279739058925
 20
1.602921452350351
 30
0.0
  0
HATCH
  5
84
330
70
100
AcDbEntity
  8
Layer 4 copy
 62
    18
420
        0
440
 33554687
100
AcDbHatch
 10
0.0
 20
0.0
 30
0.0
210
0.0
220
0.0
230
1.0
  2
SOLID
 70
     1
 71
     1
 91
        1
 92
        1
 93
        1
 72
     4
 94
        3
 73
     0
 74
     0
 95
       32
 96
       28
 40
0.0
 40
0.0
 40
0.0
 40
0.0
 40
1.0
 40
1.0
 40
1.0
 40
2.0
 40
2.0
 40
2.0
 40
3.0
 40
3.0
 40
3.0
 40
4.0
 40
4.0
 40
4.0
 40
5.0
 40
5.0
 40
5.0
 40
6.0
 40
6.0
 40
6.0
 40
7.0
 40
7.0
 40
7.0
 40
8.0
 40
8.0
 40
8.0
 40
9.0
 40
9.0
 40
9.0
 40
9.0
 10
0.1549279739058925
 20
1.602921452350351
 10
0.1424745639521537
 20
1.602921452350351
 10
0.1261294633878833
 20
1.60894412694568
 10
0.106330959699297
 20
1.620823229158834
 10
0.0467238615712328
 20
1.656573886010227
 10
-0.0037018693882626
 20
1.707037400373716
 10
-0.0435558039125302
 20
1.770800672940228
 10
-0.0690293748797836
 20
1.811553852479341
 10
-0.0659613624761227
 20
1.826425400288169
 10
-0.0634601011322628
 20
1.830929182043279
 10
-0.0600142546887557
 20
1.837155887020154
 10
-0.0483240694955309
 20
1.840586620102069
 10
-0.0305431995797992
 20
1.840586620102069
 10
-0.0273240535602023
 20
1.840586620102069
 10
-0.0239462172438733
 20
1.840473269890101
 10
-0.0203945772692072
 20
1.840254126146987
 10
0.0424694502824347
 20
1.836324652132462
 10
0.0960765438575461
 20
1.818528668855138
 10
0.1389380373390799
 20
1.787357360566817
 10
0.1798801338981346
 20
1.757576481545179
 10
0.1960967708888574
 20
1.713596599305674
 10
0.1885098633684947
 20
1.652908895823619
 10
0.1822604883492431
 20
1.602921452350351
 10
0.1617592133465248
 20
1.602921452350351
 10
0.1550186540754465
 20
1.602921452350351
 10
0.1550186540754465
 20
1.602921452350351
 10
0.1549279739058925
 20
1.602921452350351
 10
0.1549279739058925
 20
1.602921452350351
 97
        0
 97
        1
330
83
 75
     2
 76
     1
 98
        1
 10
0.0
 20
0.0
450
        0
451
        0
460
0.0
461
0.0
452
        0
462
0.0
453
        0
470

  0
SPLINE
  5
85
330
70
100
AcDbEntity
  8
Layer 4 copy
 62
    18
420
        0
370
    35
100
AcDbSpline
210
0.0
220
0.0
230
1.0
 70
     9
 71
     3
 72
    29
 73
    25
 74
     0
 42
0.0000000001
 43
0.0000000001
 40
0.0
 40
0.0
 40
0.0
 40
0.0
 40
1.0
 40
1.0
 40
1.0
 40
2.0
 40
2.0
 40
2.0
 40
3.0
 40
3.0
 40
3.0
 40
4.0
 40
4.0
 40
4.0
 40
5.0
 40
5.0
 40
5.0
 40
6.0
 40
6.0
 40
6.0
 40
7.0
 40
7.0
 40
7.0
 40
8.0
 40
8.0
 40
8.0
 40
8.0
 10
2.128385747623547
 20
-0.4628733947504316
 30
0.0
 10
2.128385747623547
 20
-0.4628733947504316
 30
0.0
 10
-0.3726853866787678
 20
-0.4628733947504316
 30
0.0
 10
-0.3726853866787678
 20
-0.4628733947504316
 30
0.0
 10
-0.4414353866787653
 20
-0.4628733947504316
 30
0.0
 10
-0.4976853866787679
 20
-0.4066233947504417
 30
0.0
 10
-0.4976853866787679
 20
-0.3378733947504315
 30
0.0
 10
-0.4976853866787679
 20
-0.3378733947504315
 30
0.0
 10
-0.4976853866787679
 20
2.163197739551871
 30
0.0
 10
-0.4976853866787679
 20
2.163197739551871
 30
0.0
 10
-0.4976853866787679
 20
2.231947739551868
 30
0.0
 10
-0.4414353866787653
 20
2.288197739551871
 30
0.0
 10
-0.3726853866787678
 20
2.288197739551871
 30
0.0
 10
-0.3726853866787678
 20
2.288197739551871
 30
0.0
 10
2.128385747623547
 20
2.288197739551871
 30
0.0
 10
2.128385747623547
 20
2.288197739551871
 30
0.0
 10
2.197135747623557
 20
2.288197739551871
 30
0.0
 10
2.253385747623547
 20
2.231947739551868
 30
0.0
 10
2.253385747623547
 20
2.163197739551871
 30
0.0
 10
2.253385747623547
 20
2.163197739551871
 30
0.0
 10
2.253385747623547
 20
-0.3378733947504315
 30
0.0
 10
2.253385747623547
 20
-0.3378733947504315
 30
0.0
 10
2.253385747623547
 20
-0.4066233947504417
 30
0.0
 10
2.197135747623557
 20
-0.4628733947504316
 30
0.0
 10
2.128385747623547
 20
-0.4628733947504316
 30
0.0
  0
ENDSEC
  0
SECTION
  2
OBJECTS
  0
DICTIONARY
  5
C
330
0
100
AcDbDictionary
281
     1
  3
ACAD_COLOR
350
63
  3
ACAD_DETAILVIEWSTYLE
350
6A
  3
ACAD_GROUP
350
D
  3
ACAD_LAYOUT
350
62
  3
ACAD_MATERIAL
350
10
  3
ACAD_MLEADERSTYLE
350
66
  3
ACAD_MLINESTYLE
350
5F
  3
ACAD_PLOTSETTINGS
350
61
  3
ACAD_PLOTSTYLENAME
350
E
  3
ACAD_SCALELIST
350
42
  3
ACAD_SECTIONVIEWSTYLE
350
68
  3
ACAD_TABLESTYLE
350
64
  3
ACAD_VISUALSTYLE
350
29
  3
ACDB_RECOMPOSE_DATA
350
8E
  3
AcDbVariableDictionary
350
86
  0
DICTIONARY
  5
63
102
{ACAD_REACTORS
330
C
102
}
330
C
100
AcDbDictionary
281
     1
  0
DICTIONARY
  5
6A
102
{ACAD_REACTORS
330
C
102
}
330
C
100
AcDbDictionary
281
     1
  3
Imperial24
350
6B
  0
DICTIONARY
  5
D
102
{ACAD_REACTORS
330
C
102
}
330
C
100
AcDbDictionary
281
     1
  0
DICTIONARY
  5
62
102
{ACAD_REACTORS
330
C
102
}
330
C
100
AcDbDictionary
281
     1
  3
Layout1
350
6F
  3
Layout2
350
77
  3
Model
350
73
  0
DICTIONARY
  5
10
102
{ACAD_REACTORS
330
C
102
}
330
C
100
AcDbDictionary
281
     1
  3
ByBlock
350
19
  3
ByLayer
350
11
  3
Global
350
21
  0
DICTIONARY
  5
66
102
{ACAD_REACTORS
330
C
102
}
330
C
100
AcDbDictionary
281
     1
  3
Standard
350
67
  0
DICTIONARY
  5
5F
102
{ACAD_REACTORS
330
C
102
}
330
C
100
AcDbDictionary
281
     1
  3
Standard
350
60
  0
DICTIONARY
  5
61
102
{ACAD_REACTORS
330
C
102
}
330
C
100
AcDbDictionary
281
     1
  0
ACDBDICTIONARYWDFLT
  5
E
102
{ACAD_REACTORS
330
C
102
}
330
C
100
AcDbDictionary
281
     1
  3
Normal
350
F
100
AcDbDictionaryWithDefault
340
F
  0
DICTIONARY
  5
42
102
{ACAD_REACTORS
330
C
102
}
330
C
100
AcDbDictionary
281
     1
  3
A0
350
43
  3
A1
350
44
  3
A2
350
45
  3
A3
350
46
  3
A4
350
47
  3
A5
350
48
  3
A6
350
49
  3
A7
350
4A
  3
A8
350
4B
  3
A9
350
4C
  3
B0
350
4D
  3
B1
350
4E
  3
B2
350
4F
  3
B3
350
50
  3
B4
350
51
  3
B5
350
52
  3
B6
350
53
  0
DICTIONARY
  5
68
102
{ACAD_REACTORS
330
C
102
}
330
C
100
AcDbDictionary
281
     1
  3
Imperial24
350
69
  0
DICTIONARY
  5
64
102
{ACAD_REACTORS
330
C
102
}
330
C
100
AcDbDictionary
281
     1
  3
Standard
350
65
  0
DICTIONARY
  5
29
102
{ACAD_REACTORS
330
C
102
}
330
C
100
AcDbDictionary
281
     1
  3
2dWireframe
350
2F
  3
Basic
350
2E
  3
Brighten
350
35
  3
ColorChange
350
39
  3
Conceptual
350
32
  3
Dim
350
34
  3
EdgeColorOff
350
41
  3
Facepattern
350
38
  3
Flat
350
2A
  3
FlatWithEdges
350
2B
  3
Gouraud
350
2C
  3
GouraudWithEdges
350
2D
  3
Hidden
350
31
  3
JitterOff
350
3F
  3
Linepattern
350
37
  3
OverhangOff
350
40
  3
Realistic
350
33
  3
Shaded
350
3E
  3
Shaded with edges
350
3D
  3
Shades of Gray
350
3A
  3
Sketchy
350
3B
  3
Thicken
350
36
  3
Wireframe
350
30
  3
X-Ray
350
3C
  0
XRECORD
  5
8E
102
{ACAD_REACTORS
330
C
102
}
330
C
100
AcDbXrecord
280
     1
 90
        1
330
65
  0
DICTIONARY
  5
86
102
{ACAD_REACTORS
330
C
102
}
330
C
100
AcDbDictionary
281
     1
  3
CANNOSCALE
350
8B
  3
CMLEADERSTYLE
350
88
  3
CTABLESTYLE
350
87
  3
CVIEWDETAILSTYLE
350
89
  3
CVIEWSECTIONSTYLE
350
8A
  0
ACDBDETAILVIEWSTYLE
  5
6B
102
{ACAD_REACTORS
330
6A
102
}
330
6A
100
AcDbModelDocViewStyle
 70
     0
  3
Imperial24
290
     1
300
Imperial24
 90
        0
100
AcDbDetailViewStyle
 70
     0
 71
     0
 90
        3
 71
     1
340
55
 62
   256
 40
0.24
340
0
 62
   256
 40
0.24
300

 40
0.36
280
     3
 71
     2
340
5D
 90
       25
 62
   256
 71
     3
340
55
 62
   256
 40
0.24
 90
        1
 40
0.75
 90
        1
300
%<\AcVar ViewType \f "%tc1">% %<\AcVar ViewDetailId>%\PSCALE %<\AcVar ViewScale \f "%sn">%
 71
     4
340
5D
 90
       25
 62
   256
340
5D
 90
       25
 62
   256
280
     0
  0
LAYOUT
  5
6F
102
{ACAD_REACTORS
330
62
102
}
330
62
100
AcDbPlotSettings
  1

  2

  4

  6

 40
0.0
 41
0.0
 42
0.0
 43
0.0
 44
0.0
 45
0.0
 46
0.0
 47
0.0
 48
0.0
 49
0.0
140
0.0
141
0.0
142
1.0
143
1.0
 70
   688
 72
     0
 73
     0
 74
     5
  7

 75
    16
147
1.0
 76
     0
 77
     2
 78
   300
148
0.0
149
0.0
100
AcDbLayout
  1
Layout1
 70
     1
 71
     1
 10
0.0
 20
0.0
 11
12.0
 21
9.0
 12
0.0
 22
0.0
 32
0.0
 14
0.0
 24
0.0
 34
0.0
 15
0.0
 25
0.0
 35
0.0
146
0.0
 13
0.0
 23
0.0
 33
0.0
 16
1.0
 26
0.0
 36
0.0
 17
0.0
 27
1.0
 37
0.0
 76
     0
330
6C
  0
LAYOUT
  5
77
102
{ACAD_REACTORS
330
62
102
}
330
62
100
AcDbPlotSettings
  1

  2

  4

  6

 40
0.0
 41
0.0
 42
0.0
 43
0.0
 44
0.0
 45
0.0
 46
0.0
 47
0.0
 48
0.0
 49
0.0
140
0.0
141
0.0
142
1.0
143
1.0
 70
   688
 72
     0
 73
     0
 74
     5
  7

 75
    16
147
1.0
 76
     0
 77
     2
 78
   300
148
0.0
149
0.0
100
AcDbLayout
  1
Layout2
 70
     1
 71
     2
 10
0.0
 20
0.0
 11
12.0
 21
9.0
 12
0.0
 22
0.0
 32
0.0
 14
0.0
 24
0.0
 34
0.0
 15
0.0
 25
0.0
 35
0.0
146
0.0
 13
0.0
 23
0.0
 33
0.0
 16
1.0
 26
0.0
 36
0.0
 17
0.0
 27
1.0
 37
0.0
 76
     0
330
74
  0
LAYOUT
  5
73
102
{ACAD_REACTORS
330
62
102
}
330
62
100
AcDbPlotSettings
  1

  2

  4

  6

 40
0.0
 41
0.0
 42
0.0
 43
0.0
 44
0.0
 45
0.0
 46
0.0
 47
0.0
 48
0.0
 49
0.0
140
0.0
141
0.0
142
1.0
143
1.0
 70
  1712
 72
     0
 73
     0
 74
     0
  7

 75
     0
147
1.0
 76
     0
 77
     2
 78
   300
148
0.0
149
0.0
100
AcDbLayout
  1
Model
 70
     1
 71
     0
 10
0.0
 20
0.0
 11
12.0
 21
9.0
 12
0.0
 22
0.0
 32
0.0
 14
0.0
 24
0.0
 34
0.0
 15
0.0
 25
0.0
 35
0.0
146
0.0
 13
0.0
 23
0.0
 33
0.0
 16
1.0
 26
0.0
 36
0.0
 17
0.0
 27
1.0
 37
0.0
 76
     0
330
70
  0
MATERIAL
  5
19
102
{ACAD_XDICTIONARY
360
1A
102
}
102
{ACAD_REACTORS
330
10
102
}
330
10
100
AcDbMaterial
  1
ByBlock
 72
     0
 43
0.0208333333333333
 43
0.0
 43
0.0
 43
0.0
 43
0.0
 43
0.0208333333333333
 43
0.0
 43
0.0
 43
0.0
 43
0.0
 43
1.0
 43
0.0
 43
0.0
 43
0.0
 43
0.0
 43
1.0
 77
     0
 47
0.0208333333333333
 47
0.0
 47
0.0
 47
0.0
 47
0.0
 47
0.0208333333333333
 47
0.0
 47
0.0
 47
0.0
 47
0.0
 47
1.0
 47
0.0
 47
0.0
 47
0.0
 47
0.0
 47
1.0
171
     0
 49
0.0208333333333333
 49
0.0
 49
0.0
 49
0.0
 49
0.0
 49
0.0208333333333333
 49
0.0
 49
0.0
 49
0.0
 49
0.0
 49
1.0
 49
0.0
 49
0.0
 49
0.0
 49
0.0
 49
1.0
175
     0
142
0.0208333333333333
142
0.0
142
0.0
142
0.0
142
0.0
142
0.0208333333333333
142
0.0
142
0.0
142
0.0
142
0.0
142
1.0
142
0.0
142
0.0
142
0.0
142
0.0
142
1.0
179
     0
144
0.0208333333333333
144
0.0
144
0.0
144
0.0
144
0.0
144
0.0208333333333333
144
0.0
144
0.0
144
0.0
144
0.0
144
1.0
144
0.0
144
0.0
144
0.0
144
0.0
144
1.0
147
0.0208333333333333
147
0.0
147
0.0
147
0.0
147
0.0
147
0.0208333333333333
147
0.0
147
0.0
147
0.0
147
0.0
147
1.0
147
0.0
147
0.0
147
0.0
147
0.0
147
1.0
  0
MATERIAL
  5
11
102
{ACAD_XDICTIONARY
360
12
102
}
102
{ACAD_REACTORS
330
10
102
}
330
10
100
AcDbMaterial
  1
ByLayer
 72
     0
 43
0.0208333333333333
 43
0.0
 43
0.0
 43
0.0
 43
0.0
 43
0.0208333333333333
 43
0.0
 43
0.0
 43
0.0
 43
0.0
 43
1.0
 43
0.0
 43
0.0
 43
0.0
 43
0.0
 43
1.0
 77
     0
 47
0.0208333333333333
 47
0.0
 47
0.0
 47
0.0
 47
0.0
 47
0.0208333333333333
 47
0.0
 47
0.0
 47
0.0
 47
0.0
 47
1.0
 47
0.0
 47
0.0
 47
0.0
 47
0.0
 47
1.0
171
     0
 49
0.0208333333333333
 49
0.0
 49
0.0
 49
0.0
 49
0.0
 49
0.0208333333333333
 49
0.0
 49
0.0
 49
0.0
 49
0.0
 49
1.0
 49
0.0
 49
0.0
 49
0.0
 49
0.0
 49
1.0
175
     0
142
0.0208333333333333
142
0.0
142
0.0
142
0.0
142
0.0
142
0.0208333333333333
142
0.0
142
0.0
142
0.0
142
0.0
142
1.0
142
0.0
142
0.0
142
0.0
142
0.0
142
1.0
179
     0
144
0.0208333333333333
144
0.0
144
0.0
144
0.0
144
0.0
144
0.0208333333333333
144
0.0
144
0.0
144
0.0
144
0.0
144
1.0
144
0.0
144
0.0
144
0.0
144
0.0
144
1.0
147
0.0208333333333333
147
0.0
147
0.0
147
0.0
147
0.0
147
0.0208333333333333
147
0.0
147
0.0
147
0.0
147
0.0
147
1.0
147
0.0
147
0.0
147
0.0
147
0.0
147
1.0
  0
MATERIAL
  5
21
102
{ACAD_XDICTIONARY
360
22
102
}
102
{ACAD_REACTORS
330
10
102
}
330
10
100
AcDbMaterial
  1
Global
 72
     0
 43
0.0208333333333333
 43
0.0
 43
0.0
 43
0.0
 43
0.0
 43
0.0208333333333333
 43
0.0
 43
0.0
 43
0.0
 43
0.0
 43
1.0
 43
0.0
 43
0.0
 43
0.0
 43
0.0
 43
1.0
 77
     0
 47
0.0208333333333333
 47
0.0
 47
0.0
 47
0.0
 47
0.0
 47
0.0208333333333333
 47
0.0
 47
0.0
 47
0.0
 47
0.0
 47
1.0
 47
0.0
 47
0.0
 47
0.0
 47
0.0
 47
1.0
171
     0
 49
0.0208333333333333
 49
0.0
 49
0.0
 49
0.0
 49
0.0
 49
0.0208333333333333
 49
0.0
 49
0.0
 49
0.0
 49
0.0
 49
1.0
 49
0.0
 49
0.0
 49
0.0
 49
0.0
 49
1.0
175
     0
142
0.0208333333333333
142
0.0
142
0.0
142
0.0
142
0.0
142
0.0208333333333333
142
0.0
142
0.0
142
0.0
142
0.0
142
1.0
142
0.0
142
0.0
142
0.0
142
0.0
142
1.0
179
     0
144
0.0208333333333333
144
0.0
144
0.0
144
0.0
144
0.0
144
0.0208333333333333
144
0.0
144
0.0
144
0.0
144
0.0
144
1.0
144
0.0
144
0.0
144
0.0
144
0.0
144
1.0
147
0.0208333333333333
147
0.0
147
0.0
147
0.0
147
0.0
147
0.0208333333333333
147
0.0
147
0.0
147
0.0
147
0.0
147
1.0
147
0.0
147
0.0
147
0.0
147
0.0
147
1.0
  0
MLEADERSTYLE
  5
67
102
{ACAD_REACTORS
330
66
102
}
330
66
100
AcDbMLeaderStyle
179
     2
170
     2
171
     1
172
     0
 90
        2
 40
0.0
 41
0.0
173
     1
 91
-1056964608
340
5B
 92
       -2
290
     1
 42
0.09
291
     1
 43
0.36
  3
Standard
 44
0.18
300

342
55
174
     1
178
     6
175
     1
176
     0
 93
-1056964608
 45
0.18
292
     0
297
     0
 46
0.18
 94
-1056964608
 47
1.0
 49
1.0
140
1.0
293
     1
141
0.0
294
     1
177
     0
142
1.0
295
     1
296
     0
143
0.125
271
     0
272
     9
273
     9
298
     1
  0
MLINESTYLE
  5
60
102
{ACAD_REACTORS
330
5F
102
}
330
5F
100
AcDbMlineStyle
  2
STANDARD
 70
     0
  3

 62
   256
 51
90.0
 52
90.0
 71
     2
 49
0.5
 62
   256
  6
BYLAYER
 49
-0.5
 62
   256
  6
BYLAYER
  0
ACDBPLACEHOLDER
  5
F
102
{ACAD_REACTORS
330
E
102
}
330
E
  0
SCALE
  5
43
102
{ACAD_REACTORS
330
42
102
}
330
42
100
AcDbScale
 70
     0
300
1:1
140
1.0
141
1.0
290
     1
  0
SCALE
  5
44
102
{ACAD_REACTORS
330
42
102
}
330
42
100
AcDbScale
 70
     0
300
1/128" = 1'-0"
140
0.0078125
141
12.0
290
     0
  0
SCALE
  5
45
102
{ACAD_REACTORS
330
42
102
}
330
42
100
AcDbScale
 70
     0
300
1/64" = 1'-0"
140
0.015625
141
12.0
290
     0
  0
SCALE
  5
46
102
{ACAD_REACTORS
330
42
102
}
330
42
100
AcDbScale
 70
     0
300
1/32" = 1'-0"
140
0.03125
141
12.0
290
     0
  0
SCALE
  5
47
102
{ACAD_REACTORS
330
42
102
}
330
42
100
AcDbScale
 70
     0
300
1/16" = 1'-0"
140
0.0625
141
12.0
290
     0
  0
SCALE
  5
48
102
{ACAD_REACTORS
330
42
102
}
330
42
100
AcDbScale
 70
     0
300
3/32" = 1'-0"
140
0.09375
141
12.0
290
     0
  0
SCALE
  5
49
102
{ACAD_REACTORS
330
42
102
}
330
42
100
AcDbScale
 70
     0
300
1/8" = 1'-0"
140
0.125
141
12.0
290
     0
  0
SCALE
  5
4A
102
{ACAD_REACTORS
330
42
102
}
330
42
100
AcDbScale
 70
     0
300
3/16" = 1'-0"
140
0.1875
141
12.0
290
     0
  0
SCALE
  5
4B
102
{ACAD_REACTORS
330
42
102
}
330
42
100
AcDbScale
 70
     0
300
1/4" = 1'-0"
140
0.25
141
12.0
290
     0
  0
SCALE
  5
4C
102
{ACAD_REACTORS
330
42
102
}
330
42
100
AcDbScale
 70
     0
300
3/8" = 1'-0"
140
0.375
141
12.0
290
     0
  0
SCALE
  5
4D
102
{ACAD_REACTORS
330
42
102
}
330
42
100
AcDbScale
 70
     0
300
1/2" = 1'-0"
140
0.5
141
12.0
290
     0
  0
SCALE
  5
4E
102
{ACAD_REACTORS
330
42
102
}
330
42
100
AcDbScale
 70
     0
300
3/4" = 1'-0"
140
0.75
141
12.0
290
     0
  0
SCALE
  5
4F
102
{ACAD_REACTORS
330
42
102
}
330
42
100
AcDbScale
 70
     0
300
1" = 1'-0"
140
1.0
141
12.0
290
     0
  0
SCALE
  5
50
102
{ACAD_REACTORS
330
42
102
}
330
42
100
AcDbScale
 70
     0
300
1-1/2" = 1'-0"
140
1.5
141
12.0
290
     0
  0
SCALE
  5
51
102
{ACAD_REACTORS
330
42
102
}
330
42
100
AcDbScale
 70
     0
300
3" = 1'-0"
140
3.0
141
12.0
290
     0
  0
SCALE
  5
52
102
{ACAD_REACTORS
330
42
102
}
330
42
100
AcDbScale
 70
     0
300
6" = 1'-0"
140
6.0
141
12.0
290
     0
  0
SCALE
  5
53
102
{ACAD_REACTORS
330
42
102
}
330
42
100
AcDbScale
 70
     0
300
1'-0" = 1'-0"
140
12.0
141
12.0
290
     0
  0
ACDBSECTIONVIEWSTYLE
  5
69
102
{ACAD_REACTORS
330
68
102
}
330
68
100
AcDbModelDocViewStyle
 70
     0
  3
Imperial24
290
     1
300
Imperial24
 90
        0
100
AcDbSectionViewStyle
 70
     0
 71
     0
 90
       78
 71
     1
340
55
 62
   256
 40
0.24
340
0
340
0
 62
   256
 40
0.24
300
I, O, Q, S, X, Z
 40
0.48
 90
        3
 40
0.18
 90
        1
 71
     2
340
5D
 90
       25
 62
   256
340
5D
 90
       50
 62
   256
 40
0.24
 40
0.0
 40
0.24
 71
     3
340
55
 62
   256
 40
0.24
 90
        1
 40
0.75
 90
        1
300
%<\AcVar ViewType \f "%tc1">% %<\AcVar ViewSectionStartId>%-%<\AcVar ViewSectionEndId>%\PSCALE %<\AcVar ViewScale \f "%sn">%
 71
     4
 62
   256
 62
   257
300
ANSI31
 40
1.0
 90
        0
290
     0
290
     0
 90
        6
 40
0.0
 40
1.570796326794896
 40
0.2617993877991494
 40
1.308996938995747
 40
-0.2617993877991494
 40
1.832595714594046
  0
TABLESTYLE
  5
65
102
{ACAD_XDICTIONARY
360
8C
102
}
102
{ACAD_REACTORS
330
64
102
}
330
64
100
AcDbTableStyle
280
     0
  3
Standard
 70
     0
 71
     0
 40
0.06
 41
0.06
280
     0
281
     0
  7
Standard
140
0.18
170
     2
 62
     0
 63
     7
283
     0
 90
      512
 91
        0
  1

274
    -2
284
     1
 64
     0
275
    -2
285
     1
 65
     0
276
    -2
286
     1
 66
     0
277
    -2
287
     1
 67
     0
278
    -2
288
     1
 68
     0
279
    -2
289
     1
 69
     0
  7
Standard
140
0.25
170
     5
 62
     0
 63
     7
283
     0
 90
      512
 91
        0
  1

274
    -2
284
     1
 64
     0
275
    -2
285
     1
 65
     0
276
    -2
286
     1
 66
     0
277
    -2
287
     1
 67
     0
278
    -2
288
     1
 68
     0
279
    -2
289
     1
 69
     0
  7
Standard
140
0.18
170
     5
 62
     0
 63
     7
283
     0
 90
      512
 91
        0
  1

274
    -2
284
     1
 64
     0
275
    -2
285
     1
 65
     0
276
    -2
286
     1
 66
     0
277
    -2
287
     1
 67
     0
278
    -2
288
     1
 68
     0
279
    -2
289
     1
 69
     0
  0
VISUALSTYLE
  5
2F
102
{ACAD_REACTORS
330
29
102
}
330
29
100
AcDbVisualStyle
  2
2dWireframe
 70
     4
177
     3
291
     0
 70
    58
 90
        0
176
     1
 90
        2
176
     1
 90
        0
176
     1
 90
        0
176
     1
 40
0.6
176
     1
 40
30.0
176
     1
 62
     7
420
 16777215
176
     1
 90
        1
176
     1
 90
        4
176
     1
 62
     7
176
     1
 62
   257
176
     1
 90
        1
176
     1
 90
        1
176
     1
 40
1.0
176
     1
 90
        0
176
     1
 62
   257
176
     1
 40
1.0
176
     1
 90
        1
176
     1
 90
        6
176
     1
 90
        2
176
     1
 62
     7
176
     1
 90
        5
176
     1
 90
        0
176
     1
 90
        0
176
     1
290
     0
176
     1
 90
        1
176
     1
 40
0.0
176
     1
 90
        0
176
     1
290
     1
176
     1
290
     1
176
     1
290
     0
176
     1
290
     0
176
     1
290
     0
176
     1
290
     0
176
     1
290
     0
176
     1
290
     0
176
     1
290
     0
176
     1
 90
       50
176
     1
 40
0.0
176
     1
 40
1.0
176
     1
 90
        0
176
     1
 62
    18
420
        0
176
     1
 90
       50
176
     1
 90
        3
176
     1
 62
     5
420
      255
176
     1
290
     0
176
     1
 90
       50
176
     1
 90
       50
176
     1
 90
       50
176
     1
290
     0
176
     1
 90
       50
176
     1
 62
   256
176
     0
 40
1.0
176
     0
 90
        2
176
     1
  1
strokes_ogs.tif
176
     1
290
     0
176
     1
 40
1.0
176
     1
 40
1.0
176
     1
  0
VISUALSTYLE
  5
2E
102
{ACAD_REACTORS
330
29
102
}
330
29
100
AcDbVisualStyle
  2
Basic
 70
     7
177
     3
291
     1
 70
    58
 90
        1
176
     1
 90
        0
176
     1
 90
        1
176
     1
 90
        0
176
     1
 40
0.6
176
     1
 40
30.0
176
     1
 62
     7
420
 16777215
176
     1
 90
        0
176
     1
 90
        4
176
     1
 62
     7
176
     1
 62
   257
176
     1
 90
        1
176
     1
 90
        1
176
     1
 40
1.0
176
     1
 90
        8
176
     1
 62
     7
176
     1
 40
1.0
176
     1
 90
        1
176
     1
 90
        6
176
     1
 90
        2
176
     1
 62
     7
176
     1
 90
        5
176
     1
 90
        0
176
     1
 90
        0
176
     1
290
     0
176
     1
 90
        1
176
     1
 40
0.0
176
     1
 90
        0
176
     1
290
     0
176
     1
290
     1
176
     1
290
     1
176
     1
290
     0
176
     1
290
     0
176
     1
290
     0
176
     1
290
     0
176
     1
290
     0
176
     1
290
     0
176
     1
 90
       50
176
     1
 40
0.0
176
     1
 40
1.0
176
     1
 90
        0
176
     1
 62
    18
420
        0
176
     1
 90
       50
176
     1
 90
        3
176
     1
 62
     5
420
      255
176
     1
290
     0
176
     1
 90
       50
176
     1
 90
       50
176
     1
 90
       50
176
     1
290
     0
176
     1
 90
       50
176
     1
 62
   256
176
     0
 40
1.0
176
     0
 90
        2
176
     1
  1
strokes_ogs.tif
176
     1
290
     0
176
     1
 40
1.0
176
     1
 40
1.0
176
     1
  0
VISUALSTYLE
  5
35
102
{ACAD_REACTORS
330
29
102
}
330
29
100
AcDbVisualStyle
  2
Brighten
 70
    12
177
     3
291
     1
 70
    58
 90
        2
176
     1
 90
        2
176
     1
 90
        0
176
     1
 90
        0
176
     1
 40
0.6
176
     1
 40
30.0
176
     1
 62
     7
420
 16777215
176
     1
 90
        1
176
     1
 90
        4
176
     1
 62
     7
176
     1
 62
   257
176
     1
 90
        1
176
     1
 90
        1
176
     1
 40
1.0
176
     1
 90
        8
176
     1
 62
     7
176
     1
 40
1.0
176
     1
 90
        1
176
     1
 90
        6
176
     1
 90
        2
176
     1
 62
     7
176
     1
 90
        5
176
     1
 90
        0
176
     1
 90
        0
176
     1
290
     0
176
     1
 90
        1
176
     1
 40
50.0
176
     1
 90
        0
176
     1
290
     0
176
     1
290
     1
176
     1
290
     1
176
     1
290
     0
176
     1
290
     0
176
     1
290
     0
176
     1
290
     0
176
     1
290
     0
176
     1
290
     0
176
     1
 90
       50
176
     1
 40
0.0
176
     1
 40
1.0
176
     1
 90
        0
176
     1
 62
    18
420
        0
176
     1
 90
       50
176
     1
 90
        3
176
     1
 62
     5
420
      255
176
     1
290
     0
176
     1
 90
       50
176
     1
 90
       50
176
     1
 90
       50
176
     1
290
     0
176
     1
 90
       50
176
     1
 62
   256
176
     0
 40
1.0
176
     0
 90
        2
176
     1
  1
strokes_ogs.tif
176
     1
290
     0
176
     1
 40
1.0
176
     1
 40
1.0
176
     1
  0
VISUALSTYLE
  5
39
102
{ACAD_REACTORS
330
29
102
}
330
29
100
AcDbVisualStyle
  2
ColorChange
 70
    16
177
     3
291
     1
 70
    58
 90
        2
176
     1
 90
        2
176
     1
 90
        3
176
     1
 90
        0
176
     1
 40
0.6
176
     1
 40
30.0
176
     1
 62
     8
420
  8421504
176
     1
 90
        1
176
     1
 90
        4
176
     1
 62
     7
176
     1
 62
   257
176
     1
 90
        1
176
     1
 90
        1
176
     1
 40
1.0
176
     1
 90
        8
176
     1
 62
     8
420
  8421504
176
     1
 40
1.0
176
     1
 90
        1
176
     1
 90
        6
176
     1
 90
        2
176
     1
 62
     7
176
     1
 90
        5
176
     1
 90
        0
176
     1
 90
        0
176
     1
290
     0
176
     1
 90
        1
176
     1
 40
0.0
176
     1
 90
        0
176
     1
290
     0
176
     1
290
     1
176
     1
290
     1
176
     1
290
     0
176
     1
290
     0
176
     1
290
     0
176
     1
290
     0
176
     1
290
     0
176
     1
290
     0
176
     1
 90
       50
176
     1
 40
0.0
176
     1
 40
1.0
176
     1
 90
        0
176
     1
 62
    18
420
        0
176
     1
 90
       50
176
     1
 90
        3
176
     1
 62
     5
420
      255
176
     1
290
     0
176
     1
 90
       50
176
     1
 90
       50
176
     1
 90
       50
176
     1
290
     0
176
     1
 90
       50
176
     1
 62
   256
176
     0
 40
1.0
176
     0
 90
        2
176
     1
  1
strokes_ogs.tif
176
     1
290
     0
176
     1
 40
1.0
176
     1
 40
1.0
176
     1
  0
VISUALSTYLE
  5
32
102
{ACAD_REACTORS
330
29
102
}
330
29
100
AcDbVisualStyle
  2
Conceptual
 70
     9
177
     3
291
     0
 70
    58
 90
        3
176
     1
 90
        2
176
     1
 90
        0
176
     1
 90
        0
176
     1
 40
0.6
176
     1
 40
30.0
176
     1
 62
     7
420
 16777215
176
     1
 90
        2
176
     1
 90
        2
176
     1
 62
     7
176
     1
 62
   257
176
     1
 90
        1
176
     1
 90
        1
176
     1
 40
179.0
176
     1
 90
        8
176
     1
 62
     7
176
     1
 40
1.0
176
     1
 90
        1
176
     1
 90
        6
176
     1
 90
        2
176
     1
 62
     7
176
     1
 90
        3
176
     1
 90
        0
176
     1
 90
        0
176
     1
290
     0
176
     1
 90
        1
176
     1
 40
0.0
176
     1
 90
        0
176
     1
290
     0
176
     1
290
     1
176
     1
290
     1
176
     1
290
     0
176
     1
290
     0
176
     1
290
     0
176
     1
290
     0
176
     1
290
     0
176
     1
290
     0
176
     1
 90
       50
176
     1
 40
0.0
176
     1
 40
1.0
176
     1
 90
        0
176
     1
 62
    18
420
        0
176
     1
 90
       50
176
     1
 90
        3
176
     1
 62
     5
420
      255
176
     1
290
     0
176
     1
 90
       50
176
     1
 90
       50
176
     1
 90
       50
176
     1
290
     0
176
     1
 90
       50
176
     1
 62
   256
176
     0
 40
1.0
176
     0
 90
        2
176
     1
  1
strokes_ogs.tif
176
     1
290
     0
176
     1
 40
1.0
176
     1
 40
1.0
176
     1
  0
VISUALSTYLE
  5
34
102
{ACAD_REACTORS
330
29
102
}
330
29
100
AcDbVisualStyle
  2
Dim
 70
    11
177
     3
291
     1
 70
    58
 90
        2
176
     1
 90
        2
176
     1
 90
        0
176
     1
 90
        0
176
     1
 40
0.6
176
     1
 40
30.0
176
     1
 62
     7
420
 16777215
176
     1
 90
        1
176
     1
 90
        4
176
     1
 62
     7
176
     1
 62
   257
176
     1
 90
        1
176
     1
 90
        1
176
     1
 40
1.0
176
     1
 90
        8
176
     1
 62
     7
176
     1
 40
1.0
176
     1
 90
        1
176
     1
 90
        6
176
     1
 90
        2
176
     1
 62
     7
176
     1
 90
        5
176
     1
 90
        0
176
     1
 90
        0
176
     1
290
     0
176
     1
 90
        1
176
     1
 40
-50.0
176
     1
 90
        0
176
     1
290
     0
176
     1
290
     1
176
     1
290
     1
176
     1
290
     0
176
     1
290
     0
176
     1
290
     0
176
     1
290
     0
176
     1
290
     0
176
     1
290
     0
176
     1
 90
       50
176
     1
 40
0.0
176
     1
 40
1.0
176
     1
 90
        0
176
     1
 62
    18
420
        0
176
     1
 90
       50
176
     1
 90
        3
176
     1
 62
     5
420
      255
176
     1
290
     0
176
     1
 90
       50
176
     1
 90
       50
176
     1
 90
       50
176
     1
290
     0
176
     1
 90
       50
176
     1
 62
   256
176
     0
 40
1.0
176
     0
 90
        2
176
     1
  1
strokes_ogs.tif
176
     1
290
     0
176
     1
 40
1.0
176
     1
 40
1.0
176
     1
  0
VISUALSTYLE
  5
41
102
{ACAD_REACTORS
330
29
102
}
330
29
100
AcDbVisualStyle
  2
EdgeColorOff
 70
    22
177
     3
291
     1
 70
    58
 90
        2
176
     0
 90
        2
176
     0
 90
        0
176
     0
 90
        0
176
     0
 40
0.6
176
     0
 40
30.0
176
     0
 62
     7
420
 16777215
176
     0
 90
        1
176
     0
 90
        4
176
     0
 62
     7
176
     0
 62
   257
176
     0
 90
        1
176
     0
 90
        1
176
     0
 40
1.0
176
     0
 90
        8
176
     2
 62
     7
176
     0
 40
1.0
176
     0
 90
        1
176
     0
 90
        6
176
     0
 90
        2
176
     0
 62
     7
176
     0
 90
        5
176
     0
 90
        0
176
     0
 90
        0
176
     0
290
     0
176
     0
 90
        1
176
     0
 40
0.0
176
     0
 90
        0
176
     0
290
     0
176
     0
290
     1
176
     0
290
     1
176
     0
290
     0
176
     0
290
     0
176
     0
290
     0
176
     0
290
     0
176
     0
290
     0
176
     0
290
     0
176
     0
 90
       50
176
     0
 40
0.0
176
     0
 40
1.0
176
     0
 90
        0
176
     0
 62
    18
420
        0
176
     0
 90
       50
176
     0
 90
        3
176
     0
 62
     5
420
      255
176
     0
290
     0
176
     0
 90
       50
176
     0
 90
       50
176
     0
 90
       50
176
     0
290
     0
176
     0
 90
       50
176
     0
 62
   256
176
     0
 40
1.0
176
     0
 90
        2
176
     0
  1
strokes_ogs.tif
176
     0
290
     0
176
     0
 40
1.0
176
     0
 40
1.0
176
     0
  0
VISUALSTYLE
  5
38
102
{ACAD_REACTORS
330
29
102
}
330
29
100
AcDbVisualStyle
  2
Facepattern
 70
    15
177
     3
291
     1
 70
    58
 90
        2
176
     1
 90
        2
176
     1
 90
        0
176
     1
 90
        0
176
     1
 40
0.6
176
     1
 40
30.0
176
     1
 62
     7
420
 16777215
176
     1
 90
        1
176
     1
 90
        4
176
     1
 62
     7
176
     1
 62
   257
176
     1
 90
        1
176
     1
 90
        1
176
     1
 40
1.0
176
     1
 90
        8
176
     1
 62
     7
176
     1
 40
1.0
176
     1
 90
        1
176
     1
 90
        6
176
     1
 90
        2
176
     1
 62
     7
176
     1
 90
        5
176
     1
 90
        0
176
     1
 90
        0
176
     1
290
     0
176
     1
 90
        1
176
     1
 40
0.0
176
     1
 90
        0
176
     1
290
     0
176
     1
290
     1
176
     1
290
     1
176
     1
290
     0
176
     1
290
     0
176
     1
290
     0
176
     1
290
     0
176
     1
290
     0
176
     1
290
     0
176
     1
 90
       50
176
     1
 40
0.0
176
     1
 40
1.0
176
     1
 90
        0
176
     1
 62
    18
420
        0
176
     1
 90
       50
176
     1
 90
        3
176
     1
 62
     5
420
      255
176
     1
290
     0
176
     1
 90
       50
176
     1
 90
       50
176
     1
 90
       50
176
     1
290
     0
176
     1
 90
       50
176
     1
 62
   256
176
     0
 40
1.0
176
     0
 90
        2
176
     1
  1
strokes_ogs.tif
176
     1
290
     0
176
     1
 40
1.0
176
     1
 40
1.0
176
     1
  0
VISUALSTYLE
  5
2A
102
{ACAD_REACTORS
330
29
102
}
330
29
100
AcDbVisualStyle
  2
Flat
 70
     0
177
     3
291
     1
 70
    58
 90
        2
176
     1
 90
        1
176
     1
 90
        1
176
     1
 90
        2
176
     1
 40
0.6
176
     1
 40
30.0
176
     1
 62
     7
420
 16777215
176
     1
 90
        0
176
     1
 90
        0
176
     1
 62
     7
176
     1
 62
   257
176
     1
 90
        1
176
     1
 90
        1
176
     1
 40
1.0
176
     1
 90
        8
176
     1
 62
     7
176
     1
 40
1.0
176
     1
 90
        1
176
     1
 90
        6
176
     1
 90
        2
176
     1
 62
     7
176
     1
 90
        5
176
     1
 90
        0
176
     1
 90
        0
176
     1
290
     0
176
     1
 90
       13
176
     1
 40
0.0
176
     1
 90
        0
176
     1
290
     0
176
     1
290
     1
176
     1
290
     1
176
     1
290
     0
176
     1
290
     0
176
     1
290
     0
176
     1
290
     0
176
     1
290
     0
176
     1
290
     0
176
     1
 90
       50
176
     1
 40
0.0
176
     1
 40
1.0
176
     1
 90
        0
176
     1
 62
    18
420
        0
176
     1
 90
       50
176
     1
 90
        3
176
     1
 62
     5
420
      255
176
     1
290
     0
176
     1
 90
       50
176
     1
 90
       50
176
     1
 90
       50
176
     1
290
     0
176
     1
 90
       50
176
     1
 62
   256
176
     0
 40
1.0
176
     0
 90
        2
176
     1
  1
strokes_ogs.tif
176
     1
290
     0
176
     1
 40
1.0
176
     1
 40
1.0
176
     1
  0
VISUALSTYLE
  5
2B
102
{ACAD_REACTORS
330
29
102
}
330
29
100
AcDbVisualStyle
  2
FlatWithEdges
 70
     1
177
     3
291
     1
 70
    58
 90
        2
176
     1
 90
        1
176
     1
 90
        1
176
     1
 90
        2
176
     1
 40
0.6
176
     1
 40
30.0
176
     1
 62
     7
420
 16777215
176
     1
 90
        1
176
     1
 90
        0
176
     1
 62
     7
176
     1
 62
   257
176
     1
 90
        1
176
     1
 90
        1
176
     1
 40
1.0
176
     1
 90
        0
176
     1
 62
   257
176
     1
 40
1.0
176
     1
 90
        1
176
     1
 90
        6
176
     1
 90
        2
176
     1
 62
     7
176
     1
 90
        5
176
     1
 90
        0
176
     1
 90
        0
176
     1
290
     0
176
     1
 90
       13
176
     1
 40
0.0
176
     1
 90
        0
176
     1
290
     0
176
     1
290
     1
176
     1
290
     1
176
     1
290
     0
176
     1
290
     0
176
     1
290
     0
176
     1
290
     0
176
     1
290
     0
176
     1
290
     0
176
     1
 90
       50
176
     1
 40
0.0
176
     1
 40
1.0
176
     1
 90
        0
176
     1
 62
    18
420
        0
176
     1
 90
       50
176
     1
 90
        3
176
     1
 62
     5
420
      255
176
     1
290
     0
176
     1
 90
       50
176
     1
 90
       50
176
     1
 90
       50
176
     1
290
     0
176
     1
 90
       50
176
     1
 62
   256
176
     0
 40
1.0
176
     0
 90
        2
176
     1
  1
strokes_ogs.tif
176
     1
290
     0
176
     1
 40
1.0
176
     1
 40
1.0
176
     1
  0
VISUALSTYLE
  5
2C
102
{ACAD_REACTORS
330
29
102
}
330
29
100
AcDbVisualStyle
  2
Gouraud
 70
     2
177
     3
291
     1
 70
    58
 90
        2
176
     1
 90
        2
176
     1
 90
        1
176
     1
 90
        2
176
     1
 40
0.6
176
     1
 40
30.0
176
     1
 62
     7
420
 16777215
176
     1
 90
        0
176
     1
 90
        0
176
     1
 62
     7
176
     1
 62
   257
176
     1
 90
        1
176
     1
 90
        1
176
     1
 40
1.0
176
     1
 90
        0
176
     1
 62
     7
176
     1
 40
1.0
176
     1
 90
        1
176
     1
 90
        6
176
     1
 90
        2
176
     1
 62
     7
176
     1
 90
        5
176
     1
 90
        0
176
     1
 90
        0
176
     1
290
     0
176
     1
 90
       13
176
     1
 40
0.0
176
     1
 90
        0
176
     1
290
     0
176
     1
290
     1
176
     1
290
     1
176
     1
290
     0
176
     1
290
     0
176
     1
290
     0
176
     1
290
     0
176
     1
290
     0
176
     1
290
     0
176
     1
 90
       50
176
     1
 40
0.0
176
     1
 40
1.0
176
     1
 90
        0
176
     1
 62
    18
420
        0
176
     1
 90
       50
176
     1
 90
        3
176
     1
 62
     5
420
      255
176
     1
290
     0
176
     1
 90
       50
176
     1
 90
       50
176
     1
 90
       50
176
     1
290
     0
176
     1
 90
       50
176
     1
 62
   256
176
     0
 40
1.0
176
     0
 90
        2
176
     1
  1
strokes_ogs.tif
176
     1
290
     0
176
     1
 40
1.0
176
     1
 40
1.0
176
     1
  0
VISUALSTYLE
  5
2D
102
{ACAD_REACTORS
330
29
102
}
330
29
100
AcDbVisualStyle
  2
GouraudWithEdges
 70
     3
177
     3
291
     1
 70
    58
 90
        2
176
     1
 90
        2
176
     1
 90
        1
176
     1
 90
        2
176
     1
 40
0.6
176
     1
 40
30.0
176
     1
 62
     7
420
 16777215
176
     1
 90
        1
176
     1
 90
        0
176
     1
 62
     7
176
     1
 62
   257
176
     1
 90
        1
176
     1
 90
        1
176
     1
 40
1.0
176
     1
 90
        0
176
     1
 62
   257
176
     1
 40
1.0
176
     1
 90
        1
176
     1
 90
        6
176
     1
 90
        2
176
     1
 62
     7
176
     1
 90
        5
176
     1
 90
        0
176
     1
 90
        0
176
     1
290
     0
176
     1
 90
       13
176
     1
 40
0.0
176
     1
 90
        0
176
     1
290
     0
176
     1
290
     1
176
     1
290
     1
176
     1
290
     0
176
     1
290
     0
176
     1
290
     0
176
     1
290
     0
176
     1
290
     0
176
     1
290
     0
176
     1
 90
       50
176
     1
 40
0.0
176
     1
 40
1.0
176
     1
 90
        0
176
     1
 62
    18
420
        0
176
     1
 90
       50
176
     1
 90
        3
176
     1
 62
     5
420
      255
176
     1
290
     0
176
     1
 90
       50
176
     1
 90
       50
176
     1
 90
       50
176
     1
290
     0
176
     1
 90
       50
176
     1
 62
   256
176
     0
 40
1.0
176
     0
 90
        2
176
     1
  1
strokes_ogs.tif
176
     1
290
     0
176
     1
 40
1.0
176
     1
 40
1.0
176
     1
  0
VISUALSTYLE
  5
31
102
{ACAD_REACTORS
330
29
102
}
330
29
100
AcDbVisualStyle
  2
Hidden
 70
     6
177
     3
291
     0
 70
    58
 90
        1
176
     1
 90
        2
176
     1
 90
        2
176
     1
 90
        0
176
     1
 40
0.6
176
     1
 40
30.0
176
     1
 62
     7
420
 16777215
176
     1
 90
        2
176
     1
 90
        2
176
     1
 62
     7
176
     1
 62
   257
176
     1
 90
        2
176
     1
 90
        1
176
     1
 40
40.0
176
     1
 90
        0
176
     1
 62
   257
176
     1
 40
1.0
176
     1
 90
        1
176
     1
 90
        6
176
     1
 90
        2
176
     1
 62
     7
176
     1
 90
        3
176
     1
 90
        0
176
     1
 90
        0
176
     1
290
     0
176
     1
 90
        1
176
     1
 40
0.0
176
     1
 90
        0
176
     1
290
     0
176
     1
290
     1
176
     1
290
     1
176
     1
290
     0
176
     1
290
     0
176
     1
290
     0
176
     1
290
     0
176
     1
290
     0
176
     1
290
     0
176
     1
 90
       50
176
     1
 40
0.0
176
     1
 40
1.0
176
     1
 90
        0
176
     1
 62
    18
420
        0
176
     1
 90
       50
176
     1
 90
        3
176
     1
 62
     5
420
      255
176
     1
290
     0
176
     1
 90
       50
176
     1
 90
       50
176
     1
 90
       50
176
     1
290
     0
176
     1
 90
       50
176
     1
 62
   256
176
     0
 40
1.0
176
     0
 90
        2
176
     1
  1
strokes_ogs.tif
176
     1
290
     0
176
     1
 40
1.0
176
     1
 40
1.0
176
     1
  0
VISUALSTYLE
  5
3F
102
{ACAD_REACTORS
330
29
102
}
330
29
100
AcDbVisualStyle
  2
JitterOff
 70
    20
177
     3
291
     1
 70
    58
 90
        2
176
     0
 90
        2
176
     0
 90
        0
176
     0
 90
        0
176
     0
 40
0.6
176
     0
 40
30.0
176
     0
 62
     7
420
 16777215
176
     0
 90
        1
176
     0
 90
        4
176
     0
 62
     7
176
     0
 62
   257
176
     0
 90
        1
176
     0
 90
        1
176
     0
 40
1.0
176
     0
 90
       10
176
     2
 62
     7
176
     0
 40
1.0
176
     0
 90
        1
176
     0
 90
        6
176
     0
 90
        2
176
     0
 62
     7
176
     0
 90
        5
176
     0
 90
        0
176
     0
 90
        0
176
     0
290
     0
176
     0
 90
        1
176
     0
 40
0.0
176
     0
 90
        0
176
     0
290
     0
176
     0
290
     1
176
     0
290
     1
176
     0
290
     0
176
     0
290
     0
176
     0
290
     0
176
     0
290
     0
176
     0
290
     0
176
     0
290
     0
176
     0
 90
       50
176
     0
 40
0.0
176
     0
 40
1.0
176
     0
 90
        0
176
     0
 62
    18
420
        0
176
     0
 90
       50
176
     0
 90
        3
176
     0
 62
     5
420
      255
176
     0
290
     0
176
     0
 90
       50
176
     0
 90
       50
176
     0
 90
       50
176
     0
290
     0
176
     0
 90
       50
176
     0
 62
   256
176
     0
 40
1.0
176
     0
 90
        2
176
     0
  1
strokes_ogs.tif
176
     0
290
     0
176
     0
 40
1.0
176
     0
 40
1.0
176
     0
  0
VISUALSTYLE
  5
37
102
{ACAD_REACTORS
330
29
102
}
330
29
100
AcDbVisualStyle
  2
Linepattern
 70
    14
177
     3
291
     1
 70
    58
 90
        2
176
     1
 90
        2
176
     1
 90
        0
176
     1
 90
        0
176
     1
 40
0.6
176
     1
 40
30.0
176
     1
 62
     7
420
 16777215
176
     1
 90
        1
176
     1
 90
        4
176
     1
 62
     7
176
     1
 62
   257
176
     1
 90
        7
176
     1
 90
        7
176
     1
 40
1.0
176
     1
 90
        8
176
     1
 62
     7
176
     1
 40
1.0
176
     1
 90
        1
176
     1
 90
        6
176
     1
 90
        2
176
     1
 62
     7
176
     1
 90
        5
176
     1
 90
        0
176
     1
 90
        0
176
     1
290
     0
176
     1
 90
        1
176
     1
 40
0.0
176
     1
 90
        0
176
     1
290
     0
176
     1
290
     1
176
     1
290
     1
176
     1
290
     0
176
     1
290
     0
176
     1
290
     0
176
     1
290
     0
176
     1
290
     0
176
     1
290
     0
176
     1
 90
       50
176
     1
 40
0.0
176
     1
 40
1.0
176
     1
 90
        0
176
     1
 62
    18
420
        0
176
     1
 90
       50
176
     1
 90
        3
176
     1
 62
     5
420
      255
176
     1
290
     0
176
     1
 90
       50
176
     1
 90
       50
176
     1
 90
       50
176
     1
290
     0
176
     1
 90
       50
176
     1
 62
   256
176
     0
 40
1.0
176
     0
 90
        2
176
     1
  1
strokes_ogs.tif
176
     1
290
     0
176
     1
 40
1.0
176
     1
 40
1.0
176
     1
  0
VISUALSTYLE
  5
40
102
{ACAD_REACTORS
330
29
102
}
330
29
100
AcDbVisualStyle
  2
OverhangOff
 70
    21
177
     3
291
     1
 70
    58
 90
        2
176
     0
 90
        2
176
     0
 90
        0
176
     0
 90
        0
176
     0
 40
0.6
176
     0
 40
30.0
176
     0
 62
     7
420
 16777215
176
     0
 90
        1
176
     0
 90
        4
176
     0
 62
     7
176
     0
 62
   257
176
     0
 90
        1
176
     0
 90
        1
176
     0
 40
1.0
176
     0
 90
        9
176
     2
 62
     7
176
     0
 40
1.0
176
     0
 90
        1
176
     0
 90
        6
176
     0
 90
        2
176
     0
 62
     7
176
     0
 90
        5
176
     0
 90
        0
176
     0
 90
        0
176
     0
290
     0
176
     0
 90
        1
176
     0
 40
0.0
176
     0
 90
        0
176
     0
290
     0
176
     0
290
     1
176
     0
290
     1
176
     0
290
     0
176
     0
290
     0
176
     0
290
     0
176
     0
290
     0
176
     0
290
     0
176
     0
290
     0
176
     0
 90
       50
176
     0
 40
0.0
176
     0
 40
1.0
176
     0
 90
        0
176
     0
 62
    18
420
        0
176
     0
 90
       50
176
     0
 90
        3
176
     0
 62
     5
420
      255
176
     0
290
     0
176
     0
 90
       50
176
     0
 90
       50
176
     0
 90
       50
176
     0
290
     0
176
     0
 90
       50
176
     0
 62
   256
176
     0
 40
1.0
176
     0
 90
        2
176
     0
  1
strokes_ogs.tif
176
     0
290
     0
176
     0
 40
1.0
176
     0
 40
1.0
176
     0
  0
VISUALSTYLE
  5
33
102
{ACAD_REACTORS
330
29
102
}
330
29
100
AcDbVisualStyle
  2
Realistic
 70
     8
177
     3
291
     0
 70
    58
 90
        2
176
     1
 90
        3
176
     1
 90
        0
176
     1
 90
        2
176
     1
 40
0.6
176
     1
 40
30.0
176
     1
 62
     7
420
 16777215
176
     1
 90
        0
176
     1
 90
        0
176
     1
 62
     7
176
     1
 62
   257
176
     1
 90
        1
176
     1
 90
        1
176
     1
 40
1.0
176
     1
 90
        8
176
     1
 62
   257
176
     1
 40
1.0
176
     1
 90
        1
176
     1
 90
        6
176
     1
 90
        2
176
     1
 62
     7
176
     1
 90
        3
176
     1
 90
        0
176
     1
 90
        0
176
     1
290
     0
176
     1
 90
       13
176
     1
 40
0.0
176
     1
 90
        0
176
     1
290
     0
176
     1
290
     1
176
     1
290
     1
176
     1
290
     0
176
     1
290
     0
176
     1
290
     0
176
     1
290
     0
176
     1
290
     0
176
     1
290
     0
176
     1
 90
       50
176
     1
 40
0.0
176
     1
 40
1.0
176
     1
 90
        0
176
     1
 62
    18
420
        0
176
     1
 90
       50
176
     1
 90
        3
176
     1
 62
     5
420
      255
176
     1
290
     0
176
     1
 90
       50
176
     1
 90
       50
176
     1
 90
       50
176
     1
290
     0
176
     1
 90
       50
176
     1
 62
   256
176
     0
 40
1.0
176
     0
 90
        2
176
     1
  1
strokes_ogs.tif
176
     1
290
     0
176
     1
 40
1.0
176
     1
 40
1.0
176
     1
  0
VISUALSTYLE
  5
3E
102
{ACAD_REACTORS
330
29
102
}
330
29
100
AcDbVisualStyle
  2
Shaded
 70
    27
177
     3
291
     0
 70
    58
 90
        2
176
     1
 90
        2
176
     1
 90
        1
176
     1
 90
        2
176
     1
 40
0.6
176
     1
 40
30.0
176
     1
 62
     7
420
 16777215
176
     1
 90
        0
176
     1
 90
        4
176
     1
 62
     7
176
     1
 62
   257
176
     1
 90
        1
176
     1
 90
        1
176
     1
 40
1.0
176
     1
 90
        8
176
     1
 62
   257
176
     1
 40
1.0
176
     1
 90
        1
176
     1
 90
        6
176
     1
 90
        2
176
     1
 62
     8
420
  7895160
176
     1
 90
        3
176
     1
 90
        0
176
     1
 90
        0
176
     1
290
     0
176
     1
 90
        5
176
     1
 40
0.0
176
     1
 90
        0
176
     1
290
     0
176
     1
290
     1
176
     1
290
     1
176
     1
290
     0
176
     1
290
     0
176
     1
290
     0
176
     1
290
     0
176
     1
290
     0
176
     1
290
     0
176
     1
 90
       50
176
     1
 40
0.0
176
     1
 40
1.0
176
     1
 90
        0
176
     1
 62
    18
420
        0
176
     1
 90
       50
176
     1
 90
        3
176
     1
 62
     5
420
      255
176
     1
290
     0
176
     1
 90
       50
176
     1
 90
       50
176
     1
 90
       50
176
     1
290
     0
176
     1
 90
       50
176
     1
 62
   256
176
     0
 40
1.0
176
     0
 90
        2
176
     1
  1
strokes_ogs.tif
176
     1
290
     0
176
     1
 40
1.0
176
     1
 40
1.0
176
     1
  0
VISUALSTYLE
  5
3D
102
{ACAD_REACTORS
330
29
102
}
330
29
100
AcDbVisualStyle
  2
Shaded with edges
 70
    26
177
     3
291
     0
 70
    58
 90
        2
176
     1
 90
        2
176
     1
 90
        1
176
     1
 90
        2
176
     1
 40
0.6
176
     1
 40
30.0
176
     1
 62
     7
420
 16777215
176
     1
 90
        1
176
     1
 90
        2
176
     1
 62
     7
176
     1
 62
   257
176
     1
 90
        2
176
     1
 90
        1
176
     1
 40
1.0
176
     1
 90
        8
176
     1
 62
   257
176
     1
 40
1.0
176
     1
 90
        1
176
     1
 90
        6
176
     1
 90
        2
176
     1
 62
     7
176
     1
 90
        3
176
     1
 90
        0
176
     1
 90
        0
176
     1
290
     0
176
     1
 90
        5
176
     1
 40
0.0
176
     1
 90
        0
176
     1
290
     0
176
     1
290
     1
176
     1
290
     1
176
     1
290
     0
176
     1
290
     0
176
     1
290
     0
176
     1
290
     0
176
     1
290
     0
176
     1
290
     0
176
     1
 90
       50
176
     1
 40
0.0
176
     1
 40
1.0
176
     1
 90
        0
176
     1
 62
    18
420
        0
176
     1
 90
       50
176
     1
 90
        3
176
     1
 62
     5
420
      255
176
     1
290
     0
176
     1
 90
       50
176
     1
 90
       50
176
     1
 90
       50
176
     1
290
     0
176
     1
 90
       50
176
     1
 62
   256
176
     0
 40
1.0
176
     0
 90
        2
176
     1
  1
strokes_ogs.tif
176
     1
290
     0
176
     1
 40
1.0
176
     1
 40
1.0
176
     1
  0
VISUALSTYLE
  5
3A
102
{ACAD_REACTORS
330
29
102
}
330
29
100
AcDbVisualStyle
  2
Shades of Gray
 70
    23
177
     3
291
     0
 70
    58
 90
        2
176
     1
 90
        2
176
     1
 90
        3
176
     1
 90
        0
176
     1
 40
0.6
176
     1
 40
30.0
176
     1
 62
     7
420
 16777215
176
     1
 90
        2
176
     1
 90
        2
176
     1
 62
     7
176
     1
 62
     7
176
     1
 90
        1
176
     1
 90
        1
176
     1
 40
40.0
176
     1
 90
        8
176
     1
 62
     7
176
     1
 40
1.0
176
     1
 90
        1
176
     1
 90
        6
176
     1
 90
        2
176
     1
 62
     7
176
     1
 90
        3
176
     1
 90
        0
176
     1
 90
        0
176
     1
290
     0
176
     1
 90
        1
176
     1
 40
0.0
176
     1
 90
        0
176
     1
290
     0
176
     1
290
     1
176
     1
290
     1
176
     1
290
     0
176
     1
290
     0
176
     1
290
     0
176
     1
290
     0
176
     1
290
     0
176
     1
290
     0
176
     1
 90
       50
176
     1
 40
0.0
176
     1
 40
1.0
176
     1
 90
        0
176
     1
 62
    18
420
        0
176
     1
 90
       50
176
     1
 90
        3
176
     1
 62
     5
420
      255
176
     1
290
     0
176
     1
 90
       50
176
     1
 90
       50
176
     1
 90
       50
176
     1
290
     0
176
     1
 90
       50
176
     1
 62
   256
176
     0
 40
1.0
176
     0
 90
        2
176
     1
  1
strokes_ogs.tif
176
     1
290
     0
176
     1
 40
1.0
176
     1
 40
1.0
176
     1
  0
VISUALSTYLE
  5
3B
102
{ACAD_REACTORS
330
29
102
}
330
29
100
AcDbVisualStyle
  2
Sketchy
 70
    24
177
     3
291
     0
 70
    58
 90
        1
176
     1
 90
        2
176
     1
 90
        2
176
     1
 90
        0
176
     1
 40
0.6
176
     1
 40
30.0
176
     1
 62
     7
420
 16777215
176
     1
 90
        2
176
     1
 90
        2
176
     1
 62
     7
176
     1
 62
     7
176
     1
 90
        1
176
     1
 90
        1
176
     1
 40
40.0
176
     1
 90
       11
176
     1
 62
     7
176
     1
 40
1.0
176
     1
 90
        1
176
     1
 90
        6
176
     1
 90
        2
176
     1
 62
     7
176
     1
 90
        6
176
     1
 90
        0
176
     1
 90
        0
176
     1
290
     0
176
     1
 90
        1
176
     1
 40
0.0
176
     1
 90
        0
176
     1
290
     0
176
     1
290
     1
176
     1
290
     1
176
     1
290
     0
176
     1
290
     0
176
     1
290
     0
176
     1
290
     0
176
     1
290
     0
176
     1
290
     0
176
     1
 90
       50
176
     1
 40
0.0
176
     1
 40
1.0
176
     1
 90
        0
176
     1
 62
    18
420
        0
176
     1
 90
       50
176
     1
 90
        3
176
     1
 62
     5
420
      255
176
     1
290
     0
176
     1
 90
       50
176
     1
 90
       50
176
     1
 90
       50
176
     1
290
     0
176
     1
 90
       50
176
     1
 62
   256
176
     0
 40
1.0
176
     0
 90
        2
176
     1
  1
strokes_ogs.tif
176
     1
290
     0
176
     1
 40
1.0
176
     1
 40
1.0
176
     1
  0
VISUALSTYLE
  5
36
102
{ACAD_REACTORS
330
29
102
}
330
29
100
AcDbVisualStyle
  2
Thicken
 70
    13
177
     3
291
     1
 70
    58
 90
        2
176
     1
 90
        2
176
     1
 90
        0
176
     1
 90
        0
176
     1
 40
0.6
176
     1
 40
30.0
176
     1
 62
     7
420
 16777215
176
     1
 90
        1
176
     1
 90
        4
176
     1
 62
     7
176
     1
 62
   257
176
     1
 90
        1
176
     1
 90
        1
176
     1
 40
1.0
176
     1
 90
       12
176
     1
 62
     7
176
     1
 40
1.0
176
     1
 90
        1
176
     1
 90
        6
176
     1
 90
        2
176
     1
 62
     7
176
     1
 90
        5
176
     1
 90
        0
176
     1
 90
        0
176
     1
290
     0
176
     1
 90
        1
176
     1
 40
0.0
176
     1
 90
        0
176
     1
290
     0
176
     1
290
     1
176
     1
290
     1
176
     1
290
     0
176
     1
290
     0
176
     1
290
     0
176
     1
290
     0
176
     1
290
     0
176
     1
290
     0
176
     1
 90
       50
176
     1
 40
0.0
176
     1
 40
1.0
176
     1
 90
        0
176
     1
 62
    18
420
        0
176
     1
 90
       50
176
     1
 90
        3
176
     1
 62
     5
420
      255
176
     1
290
     0
176
     1
 90
       50
176
     1
 90
       50
176
     1
 90
       50
176
     1
290
     0
176
     1
 90
       50
176
     1
 62
   256
176
     0
 40
1.0
176
     0
 90
        2
176
     1
  1
strokes_ogs.tif
176
     1
290
     0
176
     1
 40
1.0
176
     1
 40
1.0
176
     1
  0
VISUALSTYLE
  5
30
102
{ACAD_REACTORS
330
29
102
}
330
29
100
AcDbVisualStyle
  2
Wireframe
 70
     5
177
     3
291
     0
 70
    58
 90
        0
176
     1
 90
        2
176
     1
 90
        0
176
     1
 90
        0
176
     1
 40
0.6
176
     1
 40
30.0
176
     1
 62
     7
420
 16777215
176
     1
 90
        1
176
     1
 90
        4
176
     1
 62
     7
176
     1
 62
   257
176
     1
 90
        1
176
     1
 90
        1
176
     1
 40
1.0
176
     1
 90
        0
176
     1
 62
   257
176
     1
 40
1.0
176
     1
 90
        1
176
     1
 90
        6
176
     1
 90
        2
176
     1
 62
     7
176
     1
 90
        3
176
     1
 90
        0
176
     1
 90
        0
176
     1
290
     0
176
     1
 90
        1
176
     1
 40
0.0
176
     1
 90
        0
176
     1
290
     0
176
     1
290
     1
176
     1
290
     1
176
     1
290
     0
176
     1
290
     0
176
     1
290
     0
176
     1
290
     0
176
     1
290
     0
176
     1
290
     0
176
     1
 90
       50
176
     1
 40
0.0
176
     1
 40
1.0
176
     1
 90
        0
176
     1
 62
    18
420
        0
176
     1
 90
       50
176
     1
 90
        3
176
     1
 62
     5
420
      255
176
     1
290
     0
176
     1
 90
       50
176
     1
 90
       50
176
     1
 90
       50
176
     1
290
     0
176
     1
 90
       50
176
     1
 62
   256
176
     0
 40
1.0
176
     0
 90
        2
176
     1
  1
strokes_ogs.tif
176
     1
290
     0
176
     1
 40
1.0
176
     1
 40
1.0
176
     1
  0
VISUALSTYLE
  5
3C
102
{ACAD_REACTORS
330
29
102
}
330
29
100
AcDbVisualStyle
  2
X-Ray
 70
    25
177
     3
291
     0
 70
    58
 90
        2
176
     1
 90
        2
176
     1
 90
        1
176
     1
 90
        1
176
     1
 40
0.5
176
     1
 40
30.0
176
     1
 62
     7
420
 16777215
176
     1
 90
        1
176
     1
 90
        0
176
     1
 62
     7
176
     1
 62
   257
176
     1
 90
        1
176
     1
 90
        1
176
     1
 40
1.0
176
     1
 90
        8
176
     1
 62
     7
176
     1
 40
1.0
176
     1
 90
        1
176
     1
 90
        6
176
     1
 90
        2
176
     1
 62
     7
176
     1
 90
        3
176
     1
 90
        0
176
     1
 90
        0
176
     1
290
     0
176
     1
 90
       13
176
     1
 40
0.0
176
     1
 90
        0
176
     1
290
     0
176
     1
290
     1
176
     1
290
     1
176
     1
290
     0
176
     1
290
     0
176
     1
290
     0
176
     1
290
     0
176
     1
290
     0
176
     1
290
     0
176
     1
 90
       50
176
     1
 40
0.0
176
     1
 40
1.0
176
     1
 90
        0
176
     1
 62
    18
420
        0
176
     1
 90
       50
176
     1
 90
        3
176
     1
 62
     5
420
      255
176
     1
290
     0
176
     1
 90
       50
176
     1
 90
       50
176
     1
 90
       50
176
     1
290
     0
176
     1
 90
       50
176
     1
 62
   256
176
     0
 40
1.0
176
     0
 90
        2
176
     1
  1
strokes_ogs.tif
176
     1
290
     0
176
     1
 40
1.0
176
     1
 40
1.0
176
     1
  0
DICTIONARYVAR
  5
8B
102
{ACAD_REACTORS
330
86
102
}
330
86
100
DictionaryVariables
280
     0
  1
1:1
  0
DICTIONARYVAR
  5
88
102
{ACAD_REACTORS
330
86
102
}
330
86
100
DictionaryVariables
280
     0
  1
STANDARD
  0
DICTIONARYVAR
  5
87
102
{ACAD_REACTORS
330
86
102
}
330
86
100
DictionaryVariables
280
     0
  1
STANDARD
  0
DICTIONARYVAR
  5
89
102
{ACAD_REACTORS
330
86
102
}
330
86
100
DictionaryVariables
280
     0
  1
Imperial24
  0
DICTIONARYVAR
  5
8A
102
{ACAD_REACTORS
330
86
102
}
330
86
100
DictionaryVariables
280
     0
  1
Imperial24
  0
DICTIONARY
  5
1A
330
19
100
AcDbDictionary
280
     1
281
     1
  3
BUMPTILE
360
1C
  3
DIFFUSETILE
360
1B
  3
OPACITYTILE
360
1F
  3
REFLECTIONTILE
360
1E
  3
REFRACTIONTILE
360
20
  3
SPECULARTILE
360
1D
  0
DICTIONARY
  5
12
330
11
100
AcDbDictionary
280
     1
281
     1
  3
BUMPTILE
360
14
  3
DIFFUSETILE
360
13
  3
OPACITYTILE
360
17
  3
REFLECTIONTILE
360
16
  3
REFRACTIONTILE
360
18
  3
SPECULARTILE
360
15
  0
DICTIONARY
  5
22
330
21
100
AcDbDictionary
280
     1
281
     1
  3
BUMPTILE
360
24
  3
DIFFUSETILE
360
23
  3
OPACITYTILE
360
27
  3
REFLECTIONTILE
360
26
  3
REFRACTIONTILE
360
28
  3
SPECULARTILE
360
25
  0
DICTIONARY
  5
8C
330
65
100
AcDbDictionary
280
     1
281
     1
  3
ACAD_ROUNDTRIP_2008_TABLESTYLE_CELLSTYLEMAP
360
8D
  0
XRECORD
  5
1C
102
{ACAD_REACTORS
330
1A
102
}
330
1A
100
AcDbXrecord
280
     1
270
     1
271
     1
  0
XRECORD
  5
1B
102
{ACAD_REACTORS
330
1A
102
}
330
1A
100
AcDbXrecord
280
     1
270
     1
271
     1
  0
XRECORD
  5
1F
102
{ACAD_REACTORS
330
1A
102
}
330
1A
100
AcDbXrecord
280
     1
270
     1
271
     1
  0
XRECORD
  5
1E
102
{ACAD_REACTORS
330
1A
102
}
330
1A
100
AcDbXrecord
280
     1
270
     1
271
     1
  0
XRECORD
  5
20
102
{ACAD_REACTORS
330
1A
102
}
330
1A
100
AcDbXrecord
280
     1
270
     1
271
     1
  0
XRECORD
  5
1D
102
{ACAD_REACTORS
330
1A
102
}
330
1A
100
AcDbXrecord
280
     1
270
     1
271
     1
  0
XRECORD
  5
14
102
{ACAD_REACTORS
330
12
102
}
330
12
100
AcDbXrecord
280
     1
270
     1
271
     1
  0
XRECORD
  5
13
102
{ACAD_REACTORS
330
12
102
}
330
12
100
AcDbXrecord
280
     1
270
     1
271
     1
  0
XRECORD
  5
17
102
{ACAD_REACTORS
330
12
102
}
330
12
100
AcDbXrecord
280
     1
270
     1
271
     1
  0
XRECORD
  5
16
102
{ACAD_REACTORS
330
12
102
}
330
12
100
AcDbXrecord
280
     1
270
     1
271
     1
  0
XRECORD
  5
18
102
{ACAD_REACTORS
330
12
102
}
330
12
100
AcDbXrecord
280
     1
270
     1
271
     1
  0
XRECORD
  5
15
102
{ACAD_REACTORS
330
12
102
}
330
12
100
AcDbXrecord
280
     1
270
     1
271
     1
  0
XRECORD
  5
24
102
{ACAD_REACTORS
330
22
102
}
330
22
100
AcDbXrecord
280
     1
270
     1
271
     1
  0
XRECORD
  5
23
102
{ACAD_REACTORS
330
22
102
}
330
22
100
AcDbXrecord
280
     1
270
     1
271
     1
  0
XRECORD
  5
27
102
{ACAD_REACTORS
330
22
102
}
330
22
100
AcDbXrecord
280
     1
270
     1
271
     1
  0
XRECORD
  5
26
102
{ACAD_REACTORS
330
22
102
}
330
22
100
AcDbXrecord
280
     1
270
     1
271
     1
  0
XRECORD
  5
28
102
{ACAD_REACTORS
330
22
102
}
330
22
100
AcDbXrecord
280
     1
270
     1
271
     1
  0
XRECORD
  5
25
102
{ACAD_REACTORS
330
22
102
}
330
22
100
AcDbXrecord
280
     1
270
     1
271
     1
  0
CELLSTYLEMAP
  5
8D
102
{ACAD_REACTORS
330
8C
102
}
330
8C
100
AcDbCellStyleMap
 90
        3
300
CELLSTYLE
  1
TABLEFORMAT_BEGIN
 90
        5
170
     1
 91
        0
 92
    32768
 62
   257
 93
        1
300
CONTENTFORMAT
  1
CONTENTFORMAT_BEGIN
 90
        0
 91
        0
 92
      512
 93
        0
300

 40
0.0
140
1.0
 94
        5
 62
     0
340
55
144
0.25
309
CONTENTFORMAT_END
171
     0
 94
        0
309
TABLEFORMAT_END
  1
CELLSTYLE_BEGIN
 90
        1
 91
        1
300
_TITLE
309
CELLSTYLE_END
300
CELLSTYLE
  1
TABLEFORMAT_BEGIN
 90
        5
170
     1
 91
        0
 92
        0
 62
   257
 93
        1
300
CONTENTFORMAT
  1
CONTENTFORMAT_BEGIN
 90
        0
 91
        0
 92
      512
 93
        0
300

 40
0.0
140
1.0
 94
        5
 62
     0
340
55
144
0.18
309
CONTENTFORMAT_END
171
     0
 94
        0
309
TABLEFORMAT_END
  1
CELLSTYLE_BEGIN
 90
        2
 91
        1
300
_HEADER
309
CELLSTYLE_END
300
CELLSTYLE
  1
TABLEFORMAT_BEGIN
 90
        5
170
     1
 91
        0
 92
        0
 62
   257
 93
        1
300
CONTENTFORMAT
  1
CONTENTFORMAT_BEGIN
 90
        0
 91
        0
 92
      512
 93
        0
300

 40
0.0
140
1.0
 94
        2
 62
     0
340
55
144
0.18
309
CONTENTFORMAT_END
171
     0
 94
        0
309
TABLEFORMAT_END
  1
CELLSTYLE_BEGIN
 90
        3
 91
        2
300
_DATA
309
CELLSTYLE_END
  0
ENDSEC
  0
EOF
